  0
SECTION
  2
HEADER
  9
$ACADVER
  1
AC1018
  9
$ACADMAINTVER
 70
    39
  9
$DWGCODEPAGE
  3
DOS932
  9
$LASTSAVEDBY
  1
fottrem
  9
$INSBASE
 10
0.0
 20
0.0
 30
0.0
  9
$EXTMIN
 10
88.46731504450112
 20
149.488834092183
 30
0.0
  9
$EXTMAX
 10
113.5286268051364
 20
154.5262836648326
 30
0.0
  9
$LIMMIN
 10
0.0
 20
0.0
  9
$LIMMAX
 10
279.4
 20
215.9
  9
$ORTHOMODE
 70
     0
  9
$REGENMODE
 70
     1
  9
$FILLMODE
 70
     1
  9
$QTEXTMODE
 70
     0
  9
$MIRRTEXT
 70
     1
  9
$LTSCALE
 40
1.0
  9
$ATTMODE
 70
     1
  9
$TEXTSIZE
 40
3.5
  9
$TRACEWID
 40
1.0
  9
$TEXTSTYLE
  7
Standard
  9
$CLAYER
  8
0
  9
$CELTYPE
  6
ByLayer
  9
$CECOLOR
 62
   256
  9
$CELTSCALE
 40
1.0
  9
$DISPSILH
 70
     0
  9
$DIMSCALE
 40
1.0
  9
$DIMASZ
 40
6.0
  9
$DIMEXO
 40
1.0
  9
$DIMDLI
 40
3.75
  9
$DIMRND
 40
0.0
  9
$DIMDLE
 40
0.0
  9
$DIMEXE
 40
1.0
  9
$DIMTP
 40
0.0
  9
$DIMTM
 40
0.0
  9
$DIMTXT
 40
3.5
  9
$DIMCEN
 40
2.5
  9
$DIMTSZ
 40
0.0
  9
$DIMTOL
 70
     0
  9
$DIMLIM
 70
     0
  9
$DIMTIH
 70
     1
  9
$DIMTOH
 70
     1
  9
$DIMSE1
 70
     0
  9
$DIMSE2
 70
     0
  9
$DIMTAD
 70
     1
  9
$DIMZIN
 70
     0
  9
$DIMBLK
  1

  9
$DIMASO
 70
     1
  9
$DIMSHO
 70
     1
  9
$DIMPOST
  1

  9
$DIMAPOST
  1

  9
$DIMALT
 70
     0
  9
$DIMALTD
 70
     3
  9
$DIMALTF
 40
0.0393700787
  9
$DIMLFAC
 40
2.0
  9
$DIMTOFL
 70
     1
  9
$DIMTVP
 40
0.0
  9
$DIMTIX
 70
     0
  9
$DIMSOXD
 70
     0
  9
$DIMSAH
 70
     0
  9
$DIMBLK1
  1

  9
$DIMBLK2
  1

  9
$DIMSTYLE
  2
ISO-25
  9
$DIMCLRD
 70
     0
  9
$DIMCLRE
 70
     0
  9
$DIMCLRT
 70
     0
  9
$DIMTFAC
 40
1.0
  9
$DIMGAP
 40
1.524
  9
$DIMJUST
 70
     0
  9
$DIMSD1
 70
     0
  9
$DIMSD2
 70
     0
  9
$DIMTOLJ
 70
     0
  9
$DIMTZIN
 70
     0
  9
$DIMALTZ
 70
     0
  9
$DIMALTTZ
 70
     0
  9
$DIMUPT
 70
     0
  9
$DIMDEC
 70
     2
  9
$DIMTDEC
 70
     2
  9
$DIMALTU
 70
     2
  9
$DIMALTTD
 70
     3
  9
$DIMTXSTY
  7
Standard
  9
$DIMAUNIT
 70
     0
  9
$DIMADEC
 70
     0
  9
$DIMALTRND
 40
0.0
  9
$DIMAZIN
 70
     0
  9
$DIMDSEP
 70
    44
  9
$DIMATFIT
 70
     3
  9
$DIMFRAC
 70
     0
  9
$DIMLDRBLK
  1

  9
$DIMLUNIT
 70
     2
  9
$DIMLWD
 70
    -2
  9
$DIMLWE
 70
    -2
  9
$DIMTMOVE
 70
     0
  9
$LUNITS
 70
     2
  9
$LUPREC
 70
     2
  9
$SKETCHINC
 40
1.0
  9
$FILLETRAD
 40
10.0
  9
$AUNITS
 70
     0
  9
$AUPREC
 70
     0
  9
$MENU
  1
.
  9
$ELEVATION
 40
0.0
  9
$PELEVATION
 40
0.0
  9
$THICKNESS
 40
0.0
  9
$LIMCHECK
 70
     0
  9
$CHAMFERA
 40
10.0
  9
$CHAMFERB
 40
10.0
  9
$CHAMFERC
 40
20.0
  9
$CHAMFERD
 40
0.0
  9
$SKPOLY
 70
     0
  9
$TDCREATE
 40
2453354.092125822
  9
$TDUCREATE
 40
2453353.717125822
  9
$TDUPDATE
 40
2454742.374194445
  9
$TDUUPDATE
 40
2454741.999194445
  9
$TDINDWG
 40
0.0493171412
  9
$TDUSRTIMER
 40
0.0492708449
  9
$USRTIMER
 70
     1
  9
$ANGBASE
 50
0.0
  9
$ANGDIR
 70
     0
  9
$PDMODE
 70
     0
  9
$PDSIZE
 40
-1.0
  9
$PLINEWID
 40
0.0
  9
$SPLFRAME
 70
     0
  9
$SPLINETYPE
 70
     6
  9
$SPLINESEGS
 70
     8
  9
$HANDSEED
  5
850
  9
$SURFTAB1
 70
     6
  9
$SURFTAB2
 70
     6
  9
$SURFTYPE
 70
     6
  9
$SURFU
 70
     6
  9
$SURFV
 70
     6
  9
$UCSBASE
  2

  9
$UCSNAME
  2

  9
$UCSORG
 10
0.0
 20
0.0
 30
0.0
  9
$UCSXDIR
 10
1.0
 20
0.0
 30
0.0
  9
$UCSYDIR
 10
0.0
 20
1.0
 30
0.0
  9
$UCSORTHOREF
  2

  9
$UCSORTHOVIEW
 70
     0
  9
$UCSORGTOP
 10
0.0
 20
0.0
 30
0.0
  9
$UCSORGBOTTOM
 10
0.0
 20
0.0
 30
0.0
  9
$UCSORGLEFT
 10
0.0
 20
0.0
 30
0.0
  9
$UCSORGRIGHT
 10
0.0
 20
0.0
 30
0.0
  9
$UCSORGFRONT
 10
0.0
 20
0.0
 30
0.0
  9
$UCSORGBACK
 10
0.0
 20
0.0
 30
0.0
  9
$PUCSBASE
  2

  9
$PUCSNAME
  2

  9
$PUCSORG
 10
0.0
 20
0.0
 30
0.0
  9
$PUCSXDIR
 10
1.0
 20
0.0
 30
0.0
  9
$PUCSYDIR
 10
0.0
 20
1.0
 30
0.0
  9
$PUCSORTHOREF
  2

  9
$PUCSORTHOVIEW
 70
     0
  9
$PUCSORGTOP
 10
0.0
 20
0.0
 30
0.0
  9
$PUCSORGBOTTOM
 10
0.0
 20
0.0
 30
0.0
  9
$PUCSORGLEFT
 10
0.0
 20
0.0
 30
0.0
  9
$PUCSORGRIGHT
 10
0.0
 20
0.0
 30
0.0
  9
$PUCSORGFRONT
 10
0.0
 20
0.0
 30
0.0
  9
$PUCSORGBACK
 10
0.0
 20
0.0
 30
0.0
  9
$USERI1
 70
     0
  9
$USERI2
 70
     0
  9
$USERI3
 70
     0
  9
$USERI4
 70
     0
  9
$USERI5
 70
     0
  9
$USERR1
 40
0.0
  9
$USERR2
 40
0.0
  9
$USERR3
 40
0.0
  9
$USERR4
 40
0.0
  9
$USERR5
 40
0.0
  9
$WORLDVIEW
 70
     1
  9
$SHADEDGE
 70
     3
  9
$SHADEDIF
 70
    70
  9
$TILEMODE
 70
     1
  9
$MAXACTVP
 70
    64
  9
$PINSBASE
 10
0.0
 20
0.0
 30
0.0
  9
$PLIMCHECK
 70
     0
  9
$PEXTMIN
 10
1.000000000000000E+20
 20
1.000000000000000E+20
 30
1.000000000000000E+20
  9
$PEXTMAX
 10
-1.000000000000000E+20
 20
-1.000000000000000E+20
 30
-1.000000000000000E+20
  9
$PLIMMIN
 10
0.0
 20
0.0
  9
$PLIMMAX
 10
420.0
 20
297.0
  9
$UNITMODE
 70
     0
  9
$VISRETAIN
 70
     1
  9
$PLINEGEN
 70
     0
  9
$PSLTSCALE
 70
     1
  9
$TREEDEPTH
 70
  3020
  9
$CMLSTYLE
  2
Standard
  9
$CMLJUST
 70
     0
  9
$CMLSCALE
 40
20.0
  9
$PROXYGRAPHICS
 70
     1
  9
$MEASUREMENT
 70
     1
  9
$CELWEIGHT
370
    -1
  9
$ENDCAPS
280
     0
  9
$JOINSTYLE
280
     0
  9
$LWDISPLAY
290
     1
  9
$INSUNITS
 70
     4
  9
$HYPERLINKBASE
  1

  9
$STYLESHEET
  1

  9
$XEDIT
290
     0
  9
$CEPSNTYPE
380
     0
  9
$PSTYLEMODE
290
     1
  9
$FINGERPRINTGUID
  2
{4D907947-14C4-4E89-BA9C-867B1C998784}
  9
$VERSIONGUID
  2
{FAEB1C32-E019-11D5-929B-00C0DF256EC4}
  9
$EXTNAMES
290
     1
  9
$PSVPSCALE
 40
0.0
  9
$OLESTARTUP
290
     0
  9
$SORTENTS
280
   127
  9
$INDEXCTL
280
     0
  9
$HIDETEXT
280
     1
  9
$XCLIPFRAME
290
     0
  9
$HALOGAP
280
     0
  9
$OBSCOLOR
 70
   257
  9
$OBSLTYPE
280
     0
  9
$INTERSECTIONDISPLAY
280
     0
  9
$INTERSECTIONCOLOR
 70
   257
  9
$DIMASSOC
280
     2
  9
$PROJECTNAME
  1

  0
ENDSEC
  0
SECTION
  2
CLASSES
  0
CLASS
  1
ACDBDICTIONARYWDFLT
  2
AcDbDictionaryWithDefault
  3
ObjectDBX Classes
 90
        0
 91
        3
280
     0
281
     0
  0
CLASS
  1
ACDBPLACEHOLDER
  2
AcDbPlaceHolder
  3
ObjectDBX Classes
 90
        0
 91
        1
280
     0
281
     0
  0
CLASS
  1
LAYOUT
  2
AcDbLayout
  3
ObjectDBX Classes
 90
        0
 91
        1
280
     0
281
     0
  0
CLASS
  1
DICTIONARYVAR
  2
AcDbDictionaryVar
  3
ObjectDBX Classes
 90
        0
 91
        3
280
     0
281
     0
  0
CLASS
  1
TABLESTYLE
  2
AcDbTableStyle
  3
ObjectDBX Classes
 90
     2047
 91
        3
280
     0
281
     0
  0
CLASS
  1
SCALE
  2
AcDbScale
  3
ObjectDBX Classes
 90
     1153
 91
       67
280
     1
281
     0
  0
CLASS
  1
VISUALSTYLE
  2
AcDbVisualStyle
  3
ObjectDBX Classes
 90
     4095
 91
       33
280
     1
281
     0
  0
ENDSEC
  0
SECTION
  2
TABLES
  0
TABLE
  2
VPORT
  5
8
330
0
100
AcDbSymbolTable
 70
     2
  0
VPORT
  5
97
330
8
100
AcDbSymbolTableRecord
100
AcDbViewportTableRecord
  2
*Active
 70
     0
 10
0.0
 20
0.0
 11
1.0
 21
1.0
 12
103.0361190359702
 22
153.7301984668701
 13
0.0
 23
0.0
 14
10.0
 24
10.0
 15
10.0
 25
10.0
 16
0.0
 26
0.0
 36
1.0
 17
0.0
 27
0.0
 37
0.0
 40
19.8258136939588
 41
1.2941176471
 42
50.0
 43
0.0
 44
0.0
 50
0.0
 51
0.0
 71
    16
 72
  2000
 73
     1
 74
     1
 75
     0
 76
     0
 77
     0
 78
     0
281
     0
 65
     0
110
0.0
120
0.0
130
0.0
111
1.0
121
0.0
131
0.0
112
0.0
122
1.0
132
0.0
 79
     0
146
0.0
  0
ENDTAB
  0
TABLE
  2
LTYPE
  5
5
330
0
100
AcDbSymbolTable
 70
     6
  0
LTYPE
  5
14
330
5
100
AcDbSymbolTableRecord
100
AcDbLinetypeTableRecord
  2
ByBlock
 70
     0
  3

 72
    65
 73
     0
 40
0.0
  0
LTYPE
  5
15
330
5
100
AcDbSymbolTableRecord
100
AcDbLinetypeTableRecord
  2
ByLayer
 70
     0
  3

 72
    65
 73
     0
 40
0.0
  0
LTYPE
  5
16
330
5
100
AcDbSymbolTableRecord
100
AcDbLinetypeTableRecord
  2
Continuous
 70
     0
  3
Solid line
 72
    65
 73
     0
 40
0.0
  0
LTYPE
  5
849
330
5
100
AcDbSymbolTableRecord
100
AcDbLinetypeTableRecord
  2
HIDDEN
 70
     0
  3
Hidden __ __ __ __ __ __ __ __ __ __ __ __ __ __
 72
    65
 73
     2
 40
1.905
 49
1.27
 74
     4
 75
     0
340
0
 46
1.0
 50
0.0
 44
0.0
 45
0.0
 49
-0.635
 74
     4
 75
     0
340
0
 46
1.0
 50
0.0
 44
0.0
 45
0.0
  0
LTYPE
  5
84A
330
5
100
AcDbSymbolTableRecord
100
AcDbLinetypeTableRecord
  2
PHANTOM
 70
     0
  3
Phantom ______  __  __  ______  __  __  ______
 72
    65
 73
     6
 40
12.7
 49
6.35
 74
     4
 75
     0
340
0
 46
1.0
 50
0.0
 44
0.0
 45
0.0
 49
-1.27
 74
     4
 75
     0
340
0
 46
1.0
 50
0.0
 44
0.0
 45
0.0
 49
1.27
 74
     4
 75
     0
340
0
 46
1.0
 50
0.0
 44
0.0
 45
0.0
 49
-1.27
 74
     4
 75
     0
340
0
 46
1.0
 50
0.0
 44
0.0
 45
0.0
 49
1.27
 74
     4
 75
     0
340
0
 46
1.0
 50
0.0
 44
0.0
 45
0.0
 49
-1.27
 74
     4
 75
     0
340
0
 46
1.0
 50
0.0
 44
0.0
 45
0.0
  0
LTYPE
  5
84B
330
5
100
AcDbSymbolTableRecord
100
AcDbLinetypeTableRecord
  2
CENTER
 70
     0
  3
Center ____ _ ____ _ ____ _ ____ _ ____ _ ____
 72
    65
 73
     4
 40
10.16
 49
6.35
 74
     4
 75
     0
340
0
 46
1.0
 50
0.0
 44
0.0
 45
0.0
 49
-1.27
 74
     4
 75
     0
340
0
 46
1.0
 50
0.0
 44
0.0
 45
0.0
 49
1.27
 74
     4
 75
     0
340
0
 46
1.0
 50
0.0
 44
0.0
 45
0.0
 49
-1.27
 74
     4
 75
     0
340
0
 46
1.0
 50
0.0
 44
0.0
 45
0.0
  0
LTYPE
  5
84C
330
5
100
AcDbSymbolTableRecord
100
AcDbLinetypeTableRecord
  2
CENTERX2
 70
     0
  3
Center (2x) ________  __  ________  __  _____
 72
    65
 73
     4
 40
20.32
 49
12.7
 74
     4
 75
     0
340
0
 46
1.0
 50
0.0
 44
0.0
 45
0.0
 49
-2.54
 74
     4
 75
     0
340
0
 46
1.0
 50
0.0
 44
0.0
 45
0.0
 49
2.54
 74
     4
 75
     0
340
0
 46
1.0
 50
0.0
 44
0.0
 45
0.0
 49
-2.54
 74
     4
 75
     0
340
0
 46
1.0
 50
0.0
 44
0.0
 45
0.0
  0
LTYPE
  5
84D
330
5
100
AcDbSymbolTableRecord
100
AcDbLinetypeTableRecord
  2
DOT2
 70
     0
  3
Dot (.5x) ........................................
 72
    65
 73
     2
 40
0.635
 49
0.0
 74
     4
 75
     0
340
0
 46
1.0
 50
0.0
 44
0.0
 45
0.0
 49
-0.635
 74
     4
 75
     0
340
0
 46
1.0
 50
0.0
 44
0.0
 45
0.0
  0
ENDTAB
  0
TABLE
  2
LAYER
  5
2
330
0
100
AcDbSymbolTable
 70
     2
  0
LAYER
  5
10
330
2
100
AcDbSymbolTableRecord
100
AcDbLayerTableRecord
  2
0
 70
     0
 62
     7
  6
Continuous
370
    -3
390
F
  0
LAYER
  5
232
330
2
100
AcDbSymbolTableRecord
100
AcDbLayerTableRecord
  2
DEFPOINTS
 70
     0
 62
     7
  6
Continuous
290
     0
370
    -3
390
F
  0
ENDTAB
  0
TABLE
  2
STYLE
  5
3
330
0
100
AcDbSymbolTable
 70
     1
  0
STYLE
  5
11
330
3
100
AcDbSymbolTableRecord
100
AcDbTextStyleTableRecord
  2
Standard
 70
     0
 40
0.0
 41
1.0
 50
0.0
 71
     0
 42
2.5
  3
txt
  4
bigfont
  0
ENDTAB
  0
TABLE
  2
VIEW
  5
6
330
0
100
AcDbSymbolTable
 70
     0
  0
ENDTAB
  0
TABLE
  2
UCS
  5
7
330
0
100
AcDbSymbolTable
 70
     0
  0
ENDTAB
  0
TABLE
  2
APPID
  5
9
330
0
100
AcDbSymbolTable
 70
     1
  0
APPID
  5
12
330
9
100
AcDbSymbolTableRecord
100
AcDbRegAppTableRecord
  2
ACAD
 70
     0
  0
ENDTAB
  0
TABLE
  2
DIMSTYLE
  5
A
330
0
100
AcDbSymbolTable
 70
     2
100
AcDbDimStyleTable
  0
DIMSTYLE
105
27
330
A
100
AcDbSymbolTableRecord
100
AcDbDimStyleTableRecord
  2
Standard
 70
     0
278
     0
340
11
  0
DIMSTYLE
105
22A
330
A
100
AcDbSymbolTableRecord
100
AcDbDimStyleTableRecord
  2
ISO-25
 70
     0
 41
2.5
 42
0.625
 43
3.75
 44
1.25
 73
     0
 74
     0
 77
     1
 78
     8
140
2.5
141
2.5
143
0.0393700787
147
0.625
171
     3
172
     1
271
     2
272
     2
274
     3
278
    44
283
     0
284
     8
340
11
  0
ENDTAB
  0
TABLE
  2
BLOCK_RECORD
  5
1
330
0
100
AcDbSymbolTable
 70
     1
  0
BLOCK_RECORD
  5
1F
330
1
100
AcDbSymbolTableRecord
100
AcDbBlockTableRecord
  2
*Model_Space
340
22
  0
BLOCK_RECORD
  5
73
330
1
100
AcDbSymbolTableRecord
100
AcDbBlockTableRecord
  2
*Paper_Space
340
74
  0
BLOCK_RECORD
  5
23
330
1
100
AcDbSymbolTableRecord
100
AcDbBlockTableRecord
  2
*Paper_Space0
340
26
  0
ENDTAB
  0
ENDSEC
  0
SECTION
  2
BLOCKS
  0
BLOCK
  5
20
330
1F
100
AcDbEntity
  8
0
100
AcDbBlockBegin
  2
*Model_Space
 70
     0
 71
     0
 10
0.0
 20
0.0
 30
0.0
  3
*Model_Space
  1

  0
ENDBLK
  5
21
330
1F
100
AcDbEntity
  8
0
100
AcDbBlockEnd
  0
BLOCK
  5
75
330
73
100
AcDbEntity
 67
     1
  8
0
100
AcDbBlockBegin
  2
*Paper_Space
 70
     0
 71
     0
 10
0.0
 20
0.0
 30
0.0
  3
*Paper_Space
  1

  0
ENDBLK
  5
76
330
73
100
AcDbEntity
 67
     1
  8
0
100
AcDbBlockEnd
  0
BLOCK
  5
84E
330
23
100
AcDbEntity
  8
0
100
AcDbBlockBegin
  2
*Paper_Space0
 70
     0
 71
     0
 10
0.0
 20
0.0
 30
0.0
  3
*Paper_Space0
  1

  0
ENDBLK
  5
84F
330
23
100
AcDbEntity
  8
0
100
AcDbBlockEnd
  0
ENDSEC
  0
SECTION
  2
ENTITIES
  0
SPLINE
  5
1C2
330
1F
100
AcDbEntity
  8
0
  6
Continuous
 62
     7
370
    15
100
AcDbSpline
210
0.0
220
0.0
230
1.0
 70
    12
 71
     3
 72
    23
 73
    19
 74
     0
 42
0.00000001
 43
0.00000001
 40
0.0
 40
0.0
 40
0.0
 40
0.0
 40
0.0587011747716424
 40
0.1146843841124339
 40
0.1677660503782789
 40
0.2187460935753736
 40
0.2683938202608238
 40
0.317524089189795
 40
0.3663864298418214
 40
0.4160903827363261
 40
0.468200232223331
 40
0.5251847883441941
 40
0.5871113944362895
 40
0.6552054397149719
 40
0.7306602125096715
 40
0.8126657532688611
 40
0.9027336921483993
 40
1.0
 40
1.0
 40
1.0
 40
1.0
 10
100.9369704905481
 20
150.7481964853455
 30
0.0
 41
1.0
 10
100.9734311154648
 20
150.7487163736669
 30
0.0
 41
1.0
 10
101.0446641756069
 20
150.7497320785855
 30
0.0
 41
1.0
 10
101.1479096328714
 20
150.7644836715296
 30
0.0
 41
1.0
 10
101.2452483764636
 20
150.7850584765572
 30
0.0
 41
1.0
 10
101.3352214009521
 20
150.8174377745586
 30
0.0
 41
1.0
 10
101.4196306686465
 20
150.8566222812395
 30
0.0
 41
1.0
 10
101.4978044329744
 20
150.9049144833044
 30
0.0
 41
1.0
 10
101.569113297332
 20
150.9628100090542
 30
0.0
 41
1.0
 10
101.6351961087339
 20
151.0292473522342
 30
0.0
 41
1.0
 10
101.6945696311899
 20
151.1084199769658
 30
0.0
 41
1.0
 10
101.7438998379798
 20
151.2027695486977
 30
0.0
 41
1.0
 10
101.7863604386579
 20
151.3109825702379
 30
0.0
 41
1.0
 10
101.8200884610753
 20
151.4341243286361
 30
0.0
 41
1.0
 10
101.8477557943772
 20
151.5714649702856
 30
0.0
 41
1.0
 10
101.865362034721
 20
151.7241689806868
 30
0.0
 41
1.0
 10
101.8775861372734
 20
151.8909339115063
 30
0.0
 41
1.0
 10
101.8788620576829
 20
152.0072056248881
 30
0.0
 41
1.0
 10
101.8795245316806
 20
152.067575367557
 30
0.0
 41
1.0
  0
SPLINE
  5
1C3
330
1F
100
AcDbEntity
  8
0
  6
Continuous
 62
     7
370
    15
100
AcDbSpline
210
0.0
220
0.0
230
1.0
 70
    12
 71
     3
 72
    23
 73
    19
 74
     0
 42
0.00000001
 43
0.00000001
 40
0.0
 40
0.0
 40
0.0
 40
0.0
 40
0.0963674731515507
 40
0.1850790126112374
 40
0.2674701231894284
 40
0.3423915136427653
 40
0.4117353010919493
 40
0.4751395223334366
 40
0.5336380719689091
 40
0.5887388920769759
 40
0.6409285591764565
 40
0.6917126007360604
 40
0.7414067630479806
 40
0.7912953614254505
 40
0.8412125829771374
 40
0.8923175034941174
 40
0.9453039133258325
 40
1.0
 40
1.0
 40
1.0
 40
1.0
 10
100.0534490615951
 20
152.0046072478989
 30
0.0
 41
1.0
 10
100.0540873268454
 20
151.9484962020869
 30
0.0
 41
1.0
 10
100.0553131502322
 20
151.8407318640189
 30
0.0
 41
1.0
 10
100.067856162198
 20
151.6854751508037
 30
0.0
 41
1.0
 10
100.0849485905337
 20
151.5431445848048
 30
0.0
 41
1.0
 10
100.1133919471043
 20
151.4141738759565
 30
0.0
 41
1.0
 10
100.1466121772641
 20
151.2977648588067
 30
0.0
 41
1.0
 10
100.1893838174056
 20
151.1947673796204
 30
0.0
 41
1.0
 10
100.2380663492568
 20
151.1036455770046
 30
0.0
 41
1.0
 10
100.2967006440164
 20
151.0264401653237
 30
0.0
 41
1.0
 10
100.3620361589787
 20
150.9614809735314
 30
0.0
 41
1.0
 10
100.4294839110926
 20
150.9033287657997
 30
0.0
 41
1.0
 10
100.5034860942932
 20
150.8561250789828
 30
0.0
 41
1.0
 10
100.5811265282824
 20
150.8165525919763
 30
0.0
 41
1.0
 10
100.6636103618954
 20
150.7856331580169
 30
0.0
 41
1.0
 10
100.7508564362778
 20
150.7645380449177
 30
0.0
 41
1.0
 10
100.8423495829545
 20
150.7498162850075
 30
0.0
 41
1.0
 10
100.9050981015817
 20
150.7487421034988
 30
0.0
 41
1.0
 10
100.9369704905481
 20
150.7481964853455
 30
0.0
 41
1.0
  0
SPLINE
  5
1C4
330
1F
100
AcDbEntity
  8
0
  6
Continuous
 62
     7
370
    15
100
AcDbSpline
210
0.0
220
0.0
230
1.0
 70
    12
 71
     3
 72
    23
 73
    19
 74
     0
 42
0.00000001
 43
0.00000001
 40
0.0
 40
0.0
 40
0.0
 40
0.0
 40
0.0872130239934868
 40
0.1684905224036932
 40
0.244226804745954
 40
0.3146331599812064
 40
0.3799120494517522
 40
0.441592512248192
 40
0.4996667720944791
 40
0.555363397183714
 40
0.609454893036168
 40
0.662339735331249
 40
0.7154037475657725
 40
0.768992821092783
 40
0.8235994995361171
 40
0.8796726009023852
 40
0.9386254924914778
 40
1.0
 40
1.0
 40
1.0
 40
1.0
 10
101.8795245316806
 20
152.067575367557
 30
0.0
 41
1.0
 10
101.8787851988719
 20
152.1184267211807
 30
0.0
 41
1.0
 10
101.8773568506107
 20
152.2166685977338
 30
0.0
 41
1.0
 10
101.8659945482732
 20
152.3587825507041
 30
0.0
 41
1.0
 10
101.8448506965848
 20
152.4897525198836
 30
0.0
 41
1.0
 10
101.8185467746413
 20
152.6103679847883
 30
0.0
 41
1.0
 10
101.7813701101435
 20
152.7194529226049
 30
0.0
 41
1.0
 10
101.7381193016402
 20
152.8185675545976
 30
0.0
 41
1.0
 10
101.6839546153877
 20
152.9056904266766
 30
0.0
 41
1.0
 10
101.6238918479213
 20
152.9831975880676
 30
0.0
 41
1.0
 10
101.5566544030584
 20
153.0504910864665
 30
0.0
 41
1.0
 10
101.4828368812242
 20
153.1078847285021
 30
0.0
 41
1.0
 10
101.4039251757221
 20
153.157415937704
 30
0.0
 41
1.0
 10
101.3189287218693
 20
153.1982602329849
 30
0.0
 41
1.0
 10
101.2277023282127
 20
153.2279818120025
 30
0.0
 41
1.0
 10
101.1314907692441
 20
153.2515328017646
 30
0.0
 41
1.0
 10
101.0291037068895
 20
153.263623268328
 30
0.0
 41
1.0
 10
100.9589692027586
 20
153.2658072859412
 30
0.0
 41
1.0
 10
100.9231962143729
 20
153.2669212716702
 30
0.0
 41
1.0
  0
SPLINE
  5
1C5
330
1F
100
AcDbEntity
  8
0
  6
Continuous
 62
     7
370
    15
100
AcDbSpline
210
0.0
220
0.0
230
1.0
 70
    12
 71
     3
 72
    23
 73
    19
 74
     0
 42
0.00000001
 43
0.00000001
 40
0.0
 40
0.0
 40
0.0
 40
0.0
 40
0.052679860538838
 40
0.1042258291236701
 40
0.1539147260718561
 40
0.2029972625006352
 40
0.2521026318101962
 40
0.3015459904437899
 40
0.3525579513127302
 40
0.4049818461836626
 40
0.4603299593483125
 40
0.5193656561799618
 40
0.5830544362291091
 40
0.6527094393211759
 40
0.7290739292742343
 40
0.8123959745449524
 40
0.9026342555957014
 40
1.0
 40
1.0
 40
1.0
 40
1.0
 10
100.9231962143729
 20
153.2669212716702
 30
0.0
 41
1.0
 10
100.8926357372586
 20
153.2663580948966
 30
0.0
 41
1.0
 10
100.8321725729093
 20
153.2652438632802
 30
0.0
 41
1.0
 10
100.7439296331958
 20
153.2506155322619
 30
0.0
 41
1.0
 10
100.6593631745787
 20
153.2292985793619
 30
0.0
 41
1.0
 10
100.5790990761366
 20
153.198588022674
 30
0.0
 41
1.0
 10
100.5032506777713
 20
153.1587419508877
 30
0.0
 41
1.0
 10
100.4303250133682
 20
153.1115155869205
 30
0.0
 41
1.0
 10
100.3630169335165
 20
153.0536545247959
 30
0.0
 41
1.0
 10
100.2976256098015
 20
152.9887056275225
 30
0.0
 41
1.0
 10
100.2392146324944
 20
152.9112015721476
 30
0.0
 41
1.0
 10
100.1891431105887
 20
152.8206627887974
 30
0.0
 41
1.0
 10
100.146728887289
 20
152.7172972441865
 30
0.0
 41
1.0
 10
100.1130735514759
 20
152.6003662836118
 30
0.0
 41
1.0
 10
100.0851226947233
 20
152.4702851504906
 30
0.0
 41
1.0
 10
100.0677629704717
 20
152.3263740762384
 30
0.0
 41
1.0
 10
100.0553634214116
 20
152.1697871343081
 30
0.0
 41
1.0
 10
100.0541031417408
 20
152.0610443310631
 30
0.0
 41
1.0
 10
100.0534490615951
 20
152.0046072478989
 30
0.0
 41
1.0
  0
LINE
  5
1C6
330
1F
100
AcDbEntity
  8
0
  6
Continuous
 62
     7
370
    15
100
AcDbLine
 10
113.5286268051364
 20
150.8111643448275
 30
0.0
 11
113.5286268051364
 21
149.5518020916085
 31
0.0
  0
LINE
  5
1C7
330
1F
100
AcDbEntity
  8
0
  6
Continuous
 62
     7
370
    15
100
AcDbLine
 10
111.0099017583353
 20
150.8111643448275
 30
0.0
 11
113.5286268051364
 21
150.8111643448275
 31
0.0
  0
LINE
  5
1C8
330
1F
100
AcDbEntity
  8
0
  6
Continuous
 62
     7
370
    15
100
AcDbLine
 10
111.0099017583353
 20
151.5667820209652
 30
0.0
 11
111.0099017583353
 21
150.8111643448275
 31
0.0
  0
LINE
  5
1C9
330
1F
100
AcDbEntity
  8
0
  6
Continuous
 62
     7
370
    15
100
AcDbLine
 10
113.2767542464432
 20
151.5667820209652
 30
0.0
 11
111.0099017583353
 21
151.5667820209652
 31
0.0
  0
LINE
  5
1CA
330
1F
100
AcDbEntity
  8
0
  6
Continuous
 62
     7
370
    15
100
AcDbLine
 10
113.2767542464432
 20
152.6372401253458
 30
0.0
 11
113.2767542464432
 21
151.5667820209652
 31
0.0
  0
LINE
  5
1CB
330
1F
100
AcDbEntity
  8
0
  6
Continuous
 62
     7
370
    15
100
AcDbLine
 10
111.0099017583353
 20
152.6372401253458
 30
0.0
 11
113.2767542464432
 21
152.6372401253458
 31
0.0
  0
LINE
  5
1CC
330
1F
100
AcDbEntity
  8
0
  6
Continuous
 62
     7
370
    15
100
AcDbLine
 10
111.0099017583353
 20
153.203953112282
 30
0.0
 11
111.0099017583353
 21
152.6372401253458
 31
0.0
  0
LINE
  5
1CD
330
1F
100
AcDbEntity
  8
0
  6
Continuous
 62
     7
370
    15
100
AcDbLine
 10
113.4656583953395
 20
153.203953112282
 30
0.0
 11
111.0099017583353
 21
153.203953112282
 31
0.0
  0
LINE
  5
1CE
330
1F
100
AcDbEntity
  8
0
  6
Continuous
 62
     7
370
    15
100
AcDbLine
 10
113.4656583953395
 20
154.463315365559
 30
0.0
 11
113.4656583953395
 21
153.203953112282
 31
0.0
  0
LINE
  5
1CF
330
1F
100
AcDbEntity
  8
0
  6
Continuous
 62
     7
370
    15
100
AcDbLine
 10
109.3097625273742
 20
154.463315365559
 30
0.0
 11
113.4656583953395
 21
154.463315365559
 31
0.0
  0
LINE
  5
1D0
330
1F
100
AcDbEntity
  8
0
  6
Continuous
 62
     7
370
    15
100
AcDbLine
 10
109.3097625273742
 20
149.5518020916085
 30
0.0
 11
109.3097625273742
 21
154.463315365559
 31
0.0
  0
LINE
  5
1D1
330
1F
100
AcDbEntity
  8
0
  6
Continuous
 62
     7
370
    15
100
AcDbLine
 10
113.5286268051364
 20
149.5518020916085
 30
0.0
 11
109.3097625273742
 21
149.5518020916085
 31
0.0
  0
SPLINE
  5
1D2
330
1F
100
AcDbEntity
  8
0
  6
Continuous
 62
     7
370
    15
100
AcDbSpline
210
0.0
220
0.0
230
1.0
 70
    12
 71
     3
 72
    23
 73
    19
 74
     0
 42
0.00000001
 43
0.00000001
 40
0.0
 40
0.0
 40
0.0
 40
0.0
 40
0.0746166782617752
 40
0.1452396231245583
 40
0.2121145375989242
 40
0.2757278416849983
 40
0.3368979132464424
 40
0.3960653849055024
 40
0.4543082769370382
 40
0.5119263722374726
 40
0.5693444963897654
 40
0.6264054993290881
 40
0.6837870979534145
 40
0.7422824207678047
 40
0.8027323010565831
 40
0.8655853190789475
 40
0.9311711483545424
 40
1.0
 40
1.0
 40
1.0
 40
1.0
 10
100.9271317218515
 20
154.5262836648326
 30
0.0
 41
1.0
 10
101.0285441756134
 20
154.5241311820586
 30
0.0
 41
1.0
 10
101.225941150494
 20
154.5199414245653
 30
0.0
 41
1.0
 10
101.5130145998461
 20
154.4896685940219
 30
0.0
 41
1.0
 10
101.7817072346342
 20
154.4378310044455
 30
0.0
 41
1.0
 10
102.032220178413
 20
154.3650833848051
 30
0.0
 41
1.0
 10
102.2646014083358
 20
154.2717350281168
 30
0.0
 41
1.0
 10
102.479131164763
 20
154.1571131937249
 30
0.0
 41
1.0
 10
102.6745999660389
 20
154.0206490057849
 30
0.0
 41
1.0
 10
102.8517306462164
 20
153.8646782589035
 30
0.0
 41
1.0
 10
103.0080229115865
 20
153.6900006686081
 30
0.0
 41
1.0
 10
103.1446006421805
 20
153.5000382350126
 30
0.0
 41
1.0
 10
103.2608131134447
 20
153.2951460527747
 30
0.0
 41
1.0
 10
103.3538828748245
 20
153.0738544547808
 30
0.0
 41
1.0
 10
103.4282612310678
 20
152.8378461503245
 30
0.0
 41
1.0
 10
103.4797227072645
 20
152.5859587666563
 30
0.0
 41
1.0
 10
103.51034375622
 20
152.319223346973
 30
0.0
 41
1.0
 10
103.5145445629862
 20
152.1365293651461
 30
0.0
 41
1.0
 10
103.5166956427917
 20
152.0429784458155
 30
0.0
 41
1.0
  0
SPLINE
  5
1D3
330
1F
100
AcDbEntity
  8
0
  6
Continuous
 62
     7
370
    15
100
AcDbSpline
210
0.0
220
0.0
230
1.0
 70
    12
 71
     3
 72
    23
 73
    19
 74
     0
 42
0.00000001
 43
0.00000001
 40
0.0
 40
0.0
 40
0.0
 40
0.0
 40
0.0716615356109916
 40
0.1395533746884147
 40
0.2044242850106022
 40
0.2665300300059438
 40
0.3264686073538565
 40
0.3851179139701025
 40
0.4431074899525519
 40
0.5010806939482315
 40
0.5590344502024119
 40
0.6168831782355311
 40
0.6754373176076238
 40
0.7351512760432429
 40
0.7970239690432024
 40
0.8614175434143537
 40
0.9288252740198218
 40
1.0
 40
1.0
 40
1.0
 40
1.0
 10
98.41627795048404
 20
152.0046072478989
 30
0.0
 41
1.0
 10
98.41842382584844
 20
152.1011049933456
 30
0.0
 41
1.0
 10
98.42260269455693
 20
152.2890242991782
 30
0.0
 41
1.0
 10
98.453083807398
 20
152.5630004634314
 30
0.0
 41
1.0
 10
98.50496486750954
 20
152.8205309989184
 30
0.0
 41
1.0
 10
98.57754284724446
 20
153.0619530875548
 30
0.0
 41
1.0
 10
98.67153960450364
 20
153.2868005468135
 30
0.0
 41
1.0
 10
98.78560878950896
 20
153.4959993066722
 30
0.0
 41
1.0
 10
98.92278009452457
 20
153.687569327851
 30
0.0
 41
1.0
 10
99.07819597591907
 20
153.8632728224056
 30
0.0
 41
1.0
 10
99.25245924977234
 20
154.0202918165876
 30
0.0
 41
1.0
 10
99.44510164060196
 20
154.1552844286582
 30
0.0
 41
1.0
 10
99.65239896151714
 20
154.2713523857184
 30
0.0
 41
1.0
 10
99.87671986968414
 20
154.3649193610383
 30
0.0
 41
1.0
 10
100.1167825509067
 20
154.4374870392268
 30
0.0
 41
1.0
 10
100.3726584829996
 20
154.4894976988246
 30
0.0
 41
1.0
 10
100.6446773620158
 20
154.5199579196722
 30
0.0
 41
1.0
 10
100.8312894178251
 20
154.5241372154338
 30
0.0
 41
1.0
 10
100.9271317218515
 20
154.5262836648326
 30
0.0
 41
1.0
  0
SPLINE
  5
1D4
330
1F
100
AcDbEntity
  8
0
  6
Continuous
 62
     7
370
    15
100
AcDbSpline
210
0.0
220
0.0
230
1.0
 70
    12
 71
     3
 72
    31
 73
    27
 74
     0
 42
0.00000001
 43
0.00000001
 40
0.0
 40
0.0
 40
0.0
 40
0.0
 40
0.0489888939435593
 40
0.0956718789509515
 40
0.1406133675352525
 40
0.1836768876503393
 40
0.2249795924971233
 40
0.264950984524652
 40
0.3032279585697335
 40
0.340526311424284
 40
0.3770492467349323
 40
0.4132153105851807
 40
0.4495657990270572
 40
0.4861336895424895
 40
0.5231457930986024
 40
0.5609591172875632
 40
0.5996174731251042
 40
0.6393197139570228
 40
0.6799242549782761
 40
0.7213189729857427
 40
0.7640701302539857
 40
0.8078702860787487
 40
0.853167594284028
 40
0.9001950624404172
 40
0.9490856021598376
 40
1.0
 40
1.0
 40
1.0
 40
1.0
 10
100.9851804571614
 20
149.488834092183
 30
0.0
 41
1.0
 10
100.9182529951648
 20
149.4894529729957
 30
0.0
 41
1.0
 10
100.7875483491279
 20
149.4906616038795
 30
0.0
 41
1.0
 10
100.5958465301613
 20
149.5040910968923
 30
0.0
 41
1.0
 10
100.4129316669498
 20
149.524330778464
 30
0.0
 41
1.0
 10
100.2385354900776
 20
149.5528242787467
 30
0.0
 41
1.0
 10
100.0724798157666
 20
149.5889425215276
 30
0.0
 41
1.0
 10
99.91541978223316
 20
149.6340823381348
 30
0.0
 41
1.0
 10
99.7667034613484
 20
149.6872936563749
 30
0.0
 41
1.0
 10
99.6265489499884
 20
149.7493288414942
 30
0.0
 41
1.0
 10
99.4940940727924
 20
149.8205336237269
 30
0.0
 41
1.0
 10
99.36838204548576
 20
149.900653653013
 30
0.0
 41
1.0
 10
99.24902866387472
 20
149.9901459456652
 30
0.0
 41
1.0
 10
99.13687260148686
 20
150.0902059724206
 30
0.0
 41
1.0
 10
99.03007533430093
 20
150.1987388225137
 30
0.0
 41
1.0
 10
98.92958853061374
 20
150.3169638578275
 30
0.0
 41
1.0
 10
98.83599388836996
 20
150.4452913502112
 30
0.0
 41
1.0
 10
98.74967089366311
 20
150.5830904991183
 30
0.0
 41
1.0
 10
98.67037984503158
 20
150.7293904287286
 30
0.0
 41
1.0
 10
98.6025979667997
 20
150.8859464069446
 30
0.0
 41
1.0
 10
98.54468666300988
 20
151.0509814292992
 30
0.0
 41
1.0
 10
98.49732254838383
 20
151.2249111388965
 30
0.0
 41
1.0
 10
98.46136401217746
 20
151.4074714054841
 30
0.0
 41
1.0
 10
98.4347547375693
 20
151.5986070666495
 30
0.0
 41
1.0
 10
98.41876361580749
 20
151.7987016494541
 30
0.0
 41
1.0
 10
98.41711763142372
 20
151.9350504154664
 30
0.0
 41
1.0
 10
98.41627795048404
 20
152.0046072478989
 30
0.0
 41
1.0
  0
SPLINE
  5
1D5
330
1F
100
AcDbEntity
  8
0
  6
Continuous
 62
     7
370
    15
100
AcDbSpline
210
0.0
220
0.0
230
1.0
 70
    12
 71
     3
 72
    31
 73
    27
 74
     0
 42
0.00000001
 43
0.00000001
 40
0.0
 40
0.0
 40
0.0
 40
0.0
 40
0.0497627845928418
 40
0.097450544900092
 40
0.1432079805866516
 40
0.1869090370466846
 40
0.2291702016082423
 40
0.2696862750629016
 40
0.3091830763450819
 40
0.3472379971826964
 40
0.384588994585953
 40
0.4216496928513651
 40
0.4584327203899498
 40
0.4951788286044357
 40
0.5324144432983554
 40
0.5696492824038042
 40
0.6077860744804839
 40
0.646612546156892
 40
0.686273521400047
 40
0.7266675248837403
 40
0.7682390276984996
 40
0.8111996227258952
 40
0.8557411107334998
 40
0.9020356474818976
 40
0.9499969553229707
 40
1.0
 40
1.0
 40
1.0
 40
1.0
 10
103.5166956427917
 20
152.0429784458155
 30
0.0
 41
1.0
 10
103.515603731604
 20
151.9750744506226
 30
0.0
 41
1.0
 10
103.5134654400857
 20
151.8420979424432
 30
0.0
 41
1.0
 10
103.5010601233779
 20
151.6469617674759
 30
0.0
 41
1.0
 10
103.4784328486819
 20
151.461081799696
 30
0.0
 41
1.0
 10
103.4469258311739
 20
151.2840249414701
 30
0.0
 41
1.0
 10
103.4069444748003
 20
151.1160184433021
 30
0.0
 41
1.0
 10
103.357756111552
 20
150.9564206534707
 30
0.0
 41
1.0
 10
103.2987141381987
 20
150.8063659445771
 30
0.0
 41
1.0
 10
103.23162498406
 20
150.6644917299323
 30
0.0
 41
1.0
 10
103.1553564651547
 20
150.5311558182648
 30
0.0
 41
1.0
 10
103.0709679818896
 20
150.4048549578092
 30
0.0
 41
1.0
 10
102.9767787953013
 20
150.2867789188316
 30
0.0
 41
1.0
 10
102.8753135317064
 20
150.1745514126428
 30
0.0
 41
1.0
 10
102.7640631390666
 20
150.0711078709012
 30
0.0
 41
1.0
 10
102.6452741322429
 20
149.9734227131547
 30
0.0
 41
1.0
 10
102.5170785382746
 20
149.8845886637473
 30
0.0
 41
1.0
 10
102.3813703600901
 20
149.8012433124956
 30
0.0
 41
1.0
 10
102.2366004462053
 20
149.727642663152
 30
0.0
 41
1.0
 10
102.0834040829036
 20
149.6634067514112
 30
0.0
 41
1.0
 10
101.9215564837327
 20
149.6093723435818
 30
0.0
 41
1.0
 10
101.7509200187733
 20
149.5651957158732
 30
0.0
 41
1.0
 10
101.5714670359628
 20
149.5308679912884
 30
0.0
 41
1.0
 10
101.3835309375325
 20
149.5066375490297
 30
0.0
 41
1.0
 10
101.1871246111384
 20
149.4914975314506
 30
0.0
 41
1.0
 10
101.0534240212504
 20
149.4897341558134
 30
0.0
 41
1.0
 10
100.9851804571614
 20
149.488834092183
 30
0.0
 41
1.0
  0
SPLINE
  5
1D6
330
1F
100
AcDbEntity
  8
0
  6
Continuous
 62
     7
370
    15
100
AcDbSpline
210
0.0
220
0.0
230
1.0
 70
    12
 71
     3
 72
    15
 73
    11
 74
     0
 42
0.00000001
 43
0.00000001
 40
0.0
 40
0.0
 40
0.0
 40
0.0
 40
0.0891267845262508
 40
0.1874754171947828
 40
0.2950737490925588
 40
0.4134650076698952
 40
0.5423187826963434
 40
0.6822940313252129
 40
0.834732619283641
 40
1.0
 40
1.0
 40
1.0
 40
1.0
 10
90.27863236154172
 20
152.9028868298967
 30
0.0
 41
1.0
 10
90.26460397537159
 20
152.8799067621439
 30
0.0
 41
1.0
 10
90.23509570169388
 20
152.8315689048765
 30
0.0
 41
1.0
 10
90.20081223058608
 20
152.749115920811
 30
0.0
 41
1.0
 10
90.16994418881457
 20
152.6562011361399
 30
0.0
 41
1.0
 10
90.14588581259508
 20
152.5517236408704
 30
0.0
 41
1.0
 10
90.12770286040261
 20
152.4362807818152
 30
0.0
 41
1.0
 10
90.11377328951812
 20
152.3098986341352
 30
0.0
 41
1.0
 10
90.10631316719619
 20
152.1719562734766
 30
0.0
 41
1.0
 10
90.10511133590303
 20
152.0761105168736
 30
0.0
 41
1.0
 10
90.10448615561224
 20
152.0262525390313
 30
0.0
 41
1.0
  0
SPLINE
  5
1D7
330
1F
100
AcDbEntity
  8
0
  6
Continuous
 62
     7
370
    15
100
AcDbSpline
210
0.0
220
0.0
230
1.0
 70
    12
 71
     3
 72
    15
 73
    11
 74
     0
 42
0.00000001
 43
0.00000001
 40
0.0
 40
0.0
 40
0.0
 40
0.0
 40
0.1265245164802449
 40
0.2496396576504549
 40
0.3690508335393841
 40
0.4877375116042038
 40
0.6090952963320719
 40
0.7330732123071789
 40
0.8622201453765794
 40
1.0
 40
1.0
 40
1.0
 40
1.0
 10
90.9201200805588
 20
153.2669212716702
 30
0.0
 41
1.0
 10
90.88758995229493
 20
153.2657133092557
 30
0.0
 41
1.0
 10
90.82340626435025
 20
153.2633299346181
 30
0.0
 41
1.0
 10
90.72959507586457
 20
153.2466885601646
 30
0.0
 41
1.0
 10
90.64121178158504
 20
153.217515319256
 30
0.0
 41
1.0
 10
90.55715042574282
 20
153.1782974823077
 30
0.0
 41
1.0
 10
90.47985069468619
 20
153.1250316884034
 30
0.0
 41
1.0
 10
90.40596854754608
 20
153.0630242477353
 30
0.0
 41
1.0
 10
90.33860416278209
 20
152.9879637636546
 30
0.0
 41
1.0
 10
90.29904938758585
 20
152.9318507418748
 30
0.0
 41
1.0
 10
90.27863236154172
 20
152.9028868298967
 30
0.0
 41
1.0
  0
SPLINE
  5
1D8
330
1F
100
AcDbEntity
  8
0
  6
Continuous
 62
     7
370
    15
100
AcDbSpline
210
0.0
220
0.0
230
1.0
 70
    12
 71
     3
 72
    15
 73
    11
 74
     0
 42
0.00000001
 43
0.00000001
 40
0.0
 40
0.0
 40
0.0
 40
0.0
 40
0.1254504365105858
 40
0.2476577228212501
 40
0.3691175569440204
 40
0.4911533346376593
 40
0.6139627224729061
 40
0.7390933543377298
 40
0.8662238927918001
 40
1.0
 40
1.0
 40
1.0
 40
1.0
 10
91.55176903087933
 20
152.9599516883369
 30
0.0
 41
1.0
 10
91.53266015549528
 20
152.9837574381956
 30
0.0
 41
1.0
 10
91.49493640821373
 20
153.030753510621
 30
0.0
 41
1.0
 10
91.42880223488818
 20
153.0917250659503
 30
0.0
 41
1.0
 10
91.35810217460417
 20
153.1459199805101
 30
0.0
 41
1.0
 10
91.27971545242147
 20
153.1887290062352
 30
0.0
 41
1.0
 10
91.19661467586438
 20
153.2233823171401
 30
0.0
 41
1.0
 10
91.10899944502165
 20
153.2492518556944
 30
0.0
 41
1.0
 10
91.01607232492185
 20
153.264246275979
 30
0.0
 41
1.0
 10
90.95264270191842
 20
153.2660145928053
 30
0.0
 41
1.0
 10
90.9201200805588
 20
153.2669212716702
 30
0.0
 41
1.0
  0
SPLINE
  5
1D9
330
1F
100
AcDbEntity
  8
0
  6
Continuous
 62
     7
370
    15
100
AcDbSpline
210
0.0
220
0.0
230
1.0
 70
    12
 71
     3
 72
    11
 73
     7
 74
     0
 42
0.00000001
 43
0.00000001
 40
0.0
 40
0.0
 40
0.0
 40
0.0
 40
0.3259401925990268
 40
0.6009167687377369
 40
0.8245430207611647
 40
1.0
 40
1.0
 40
1.0
 40
1.0
 10
91.69935056132805
 20
152.637240075089
 30
0.0
 41
1.0
 10
91.68655096951422
 20
152.6737650479596
 30
0.0
 41
1.0
 10
91.6629531146667
 20
152.7411039928766
 30
0.0
 41
1.0
 10
91.62611340049511
 20
152.8318021713096
 30
0.0
 41
1.0
 10
91.59061453979434
 20
152.9037982359742
 30
0.0
 41
1.0
 10
91.56363193538392
 20
152.9428031668839
 30
0.0
 41
1.0
 10
91.55176903087933
 20
152.9599516883369
 30
0.0
 41
1.0
  0
LINE
  5
1DA
330
1F
100
AcDbEntity
  8
0
  6
Continuous
 62
     7
370
    15
100
AcDbLine
 10
93.18992444293583
 20
152.9343708233934
 30
0.0
 11
91.69935080275856
 21
152.6372401253458
 31
0.0
  0
SPLINE
  5
1DB
330
1F
100
AcDbEntity
  8
0
  6
Continuous
 62
     7
370
    15
100
AcDbSpline
210
0.0
220
0.0
230
1.0
 70
    12
 71
     3
 72
    23
 73
    19
 74
     0
 42
0.00000001
 43
0.00000001
 40
0.0
 40
0.0
 40
0.0
 40
0.0
 40
0.0760730280856905
 40
0.1478373240976601
 40
0.2161822139431241
 40
0.2810780795124732
 40
0.3428683748457451
 40
0.4023729067409056
 40
0.459349411112674
 40
0.5150596440833314
 40
0.5703321062250314
 40
0.6261862397074963
 40
0.6830820493143293
 40
0.7415272493335333
 40
0.8023354258119668
 40
0.8652680989721208
 40
0.9312421928858703
 40
1.0
 40
1.0
 40
1.0
 40
1.0
 10
90.90929743499258
 20
154.5262836648326
 30
0.0
 41
1.0
 10
90.98608351091029
 20
154.525321510544
 30
0.0
 41
1.0
 10
91.13530654405746
 20
154.5234516978263
 30
0.0
 41
1.0
 10
91.35279139615272
 20
154.5040569401309
 30
0.0
 41
1.0
 10
91.55761584377557
 20
154.4741568538969
 30
0.0
 41
1.0
 10
91.75003889127728
 20
154.4319855358498
 30
0.0
 41
1.0
 10
91.93025035725816
 20
154.3780923766662
 30
0.0
 41
1.0
 10
92.09760215639565
 20
154.3114032320814
 30
0.0
 41
1.0
 10
92.25261443574836
 20
154.2322917035394
 30
0.0
 41
1.0
 10
92.39527551608789
 20
154.1402162282625
 30
0.0
 41
1.0
 10
92.52696221696195
 20
154.0348916019446
 30
0.0
 41
1.0
 10
92.64931789815202
 20
153.9172216638435
 30
0.0
 41
1.0
 10
92.76324695783971
 20
153.7869898641507
 30
0.0
 41
1.0
 10
92.86637617346487
 20
153.641941497134
 30
0.0
 41
1.0
 10
92.96212627394759
 20
153.4847664203483
 30
0.0
 41
1.0
 10
93.04725161178347
 20
153.3131135556846
 30
0.0
 41
1.0
 10
93.1258002723644
 20
153.1295445455254
 30
0.0
 41
1.0
 10
93.16825703514263
 20
153.000318758548
 30
0.0
 41
1.0
 10
93.1899240188601
 20
152.9343708897258
 30
0.0
 41
1.0
  0
SPLINE
  5
1DC
330
1F
100
AcDbEntity
  8
0
  6
Continuous
 62
     7
370
    15
100
AcDbSpline
210
0.0
220
0.0
230
1.0
 70
    12
 71
     3
 72
    23
 73
    19
 74
     0
 42
0.00000001
 43
0.00000001
 40
0.0
 40
0.0
 40
0.0
 40
0.0
 40
0.0734183427097474
 40
0.1427722148439013
 40
0.2086700629661425
 40
0.2717593854442703
 40
0.3321805365053322
 40
0.3907628913963764
 40
0.4483272956672303
 40
0.5054082700666767
 40
0.5624282599301736
 40
0.6196101969712673
 40
0.6773461227738683
 40
0.7365838309209944
 40
0.7978516737332303
 40
0.8619064247572445
 40
0.9290508073913645
 40
1.0
 40
1.0
 40
1.0
 40
1.0
 10
88.46731504450112
 20
152.0193654009437
 30
0.0
 41
1.0
 10
88.4689481663825
 20
152.1168667473525
 30
0.0
 41
1.0
 10
88.4721239998256
 20
152.3064717243006
 30
0.0
 41
1.0
 10
88.50406607799357
 20
152.581973378707
 30
0.0
 41
1.0
 10
88.55148699196948
 20
152.8412846708331
 30
0.0
 41
1.0
 10
88.6231547665217
 20
153.0827155988941
 30
0.0
 41
1.0
 10
88.71195907142612
 20
153.3079702576429
 30
0.0
 41
1.0
 10
88.82318621431901
 20
153.5148744919074
 30
0.0
 41
1.0
 10
88.95333559065381
 20
153.7050081359154
 30
0.0
 41
1.0
 10
89.10361475460026
 20
153.8770345011958
 30
0.0
 41
1.0
 10
89.27255459154763
 20
154.0299493488537
 30
0.0
 41
1.0
 10
89.45834458600652
 20
154.1633345123659
 30
0.0
 41
1.0
 10
89.66061392233038
 20
154.276361540394
 30
0.0
 41
1.0
 10
89.87943743415703
 20
154.3674761803202
 30
0.0
 41
1.0
 10
90.11393706048263
 20
154.4397756352329
 30
0.0
 41
1.0
 10
90.36476223064614
 20
154.4901072092064
 30
0.0
 41
1.0
 10
90.63170920623686
 20
154.5212869683005
 30
0.0
 41
1.0
 10
90.81508388763905
 20
154.5245877841843
 30
0.0
 41
1.0
 10
90.90929743499258
 20
154.5262836648326
 30
0.0
 41
1.0
  0
SPLINE
  5
1DD
330
1F
100
AcDbEntity
  8
0
  6
Continuous
 62
     7
370
    15
100
AcDbSpline
210
0.0
220
0.0
230
1.0
 70
    12
 71
     3
 72
    31
 73
    27
 74
     0
 42
0.00000001
 43
0.00000001
 40
0.0
 40
0.0
 40
0.0
 40
0.0
 40
0.0470995798814956
 40
0.0920943632906202
 40
0.1352980034358774
 40
0.1763505395916402
 40
0.2155649902742134
 40
0.2530536222157777
 40
0.2892506806164302
 40
0.3237831080886309
 40
0.3576952747125332
 40
0.3922006722486144
 40
0.4272659976587518
 40
0.46320436374379
 40
0.5002588177419739
 40
0.5386056213094572
 40
0.5784507299312273
 40
0.6197080181609258
 40
0.662210839412077
 40
0.7055398269181303
 40
0.7502276970400881
 40
0.7964013425510567
 40
0.8440480914669882
 40
0.893806413072383
 40
0.9458878448711601
 40
1.0
 40
1.0
 40
1.0
 40
1.0
 10
90.98702370769556
 20
149.488834092183
 30
0.0
 41
1.0
 10
90.92305436401607
 20
149.4896150656171
 30
0.0
 41
1.0
 10
90.79797435287576
 20
149.4911421121711
 30
0.0
 41
1.0
 10
90.61450866279554
 20
149.502330805029
 30
0.0
 41
1.0
 10
90.43973141432602
 20
149.519288304541
 30
0.0
 41
1.0
 10
90.27396275745569
 20
149.5451378949564
 30
0.0
 41
1.0
 10
90.11727034704079
 20
149.5774190597007
 30
0.0
 41
1.0
 10
89.9689250226484
 20
149.6165830584659
 30
0.0
 41
1.0
 10
89.82956471850449
 20
149.6636252971138
 30
0.0
 41
1.0
 10
89.69817510992102
 20
149.7180550594679
 30
0.0
 41
1.0
 10
89.57333365889154
 20
149.7814578922663
 30
0.0
 41
1.0
 10
89.45466334381187
 20
149.8570136591894
 30
0.0
 41
1.0
 10
89.33863763166353
 20
149.9413426435425
 30
0.0
 41
1.0
 10
89.22854482274606
 20
150.0386693084679
 30
0.0
 41
1.0
 10
89.12216606135986
 20
150.146233079271
 30
0.0
 41
1.0
 10
89.01929461024484
 20
150.2644017334019
 30
0.0
 41
1.0
 10
88.92276800398889
 20
150.3949059280061
 30
0.0
 41
1.0
 10
88.8286200783073
 20
150.5339777473708
 30
0.0
 41
1.0
 10
88.74295473536714
 20
150.6840672318324
 30
0.0
 41
1.0
 10
88.66887168290192
 20
150.8453579946757
 30
0.0
 41
1.0
 10
88.60729078890448
 20
151.0170840649349
 30
0.0
 41
1.0
 10
88.55636118495
 20
151.1982952026067
 30
0.0
 41
1.0
 10
88.51565244683032
 20
151.3891500996704
 30
0.0
 41
1.0
 10
88.48754266085182
 20
151.5903550995394
 30
0.0
 41
1.0
 10
88.47082012855451
 20
151.8016428299428
 30
0.0
 41
1.0
 10
88.46849820643658
 20
151.9458718542628
 30
0.0
 41
1.0
 10
88.46731504450112
 20
152.0193654009437
 30
0.0
 41
1.0
  0
SPLINE
  5
1DE
330
1F
100
AcDbEntity
  8
0
  6
Continuous
 62
     7
370
    15
100
AcDbSpline
210
0.0
220
0.0
230
1.0
 70
    12
 71
     3
 72
    31
 73
    27
 74
     0
 42
0.00000001
 43
0.00000001
 40
0.0
 40
0.0
 40
0.0
 40
0.0
 40
0.0468124711398558
 40
0.0919203092576552
 40
0.1353210321850818
 40
0.1779122906885628
 40
0.2191211066501234
 40
0.2590816861249158
 40
0.2982068037867237
 40
0.3366343894341586
 40
0.3745099941406582
 40
0.4119856010286926
 40
0.4489919534747468
 40
0.4861412903566861
 40
0.5233025177747668
 40
0.5606731875106812
 40
0.5984111614408576
 40
0.6368067981098501
 40
0.6760233985310166
 40
0.7166479519893248
 40
0.7588315627688826
 40
0.8029524460944327
 40
0.8492630845188961
 40
0.8971208927499221
 40
0.9473518327263882
 40
1.0
 40
1.0
 40
1.0
 40
1.0
 10
93.25289213851822
 20
151.2283283977386
 30
0.0
 41
1.0
 10
93.2415646744438
 20
151.1806472895624
 30
0.0
 41
1.0
 10
93.2193222254666
 20
151.0870213368497
 30
0.0
 41
1.0
 10
93.17842025415374
 20
150.9513529563071
 30
0.0
 41
1.0
 10
93.13439940119608
 20
150.8213410784287
 30
0.0
 41
1.0
 10
93.08432191337893
 20
150.6978963796457
 30
0.0
 41
1.0
 10
93.02933141364309
 20
150.5805352512105
 30
0.0
 41
1.0
 10
92.96902459197297
 20
150.4699223444431
 30
0.0
 41
1.0
 10
92.90407148124704
 20
150.3653891279123
 30
0.0
 41
1.0
 10
92.83410736520521
 20
150.2668025813058
 30
0.0
 41
1.0
 10
92.75928691290824
 20
150.1740316682511
 30
0.0
 41
1.0
 10
92.67937073466523
 20
150.0876764402151
 30
0.0
 41
1.0
 10
92.59565572318174
 20
150.0060195666283
 30
0.0
 41
1.0
 10
92.50563978392282
 20
149.9319045508558
 30
0.0
 41
1.0
 10
92.4123003427464
 20
149.8614563168439
 30
0.0
 41
1.0
 10
92.31363375092569
 20
149.7974163863219
 30
0.0
 41
1.0
 10
92.209811791839
 20
149.7395666379545
 30
0.0
 41
1.0
 10
92.10164548063119
 20
149.6857385015458
 30
0.0
 41
1.0
 10
91.98666956678092
 20
149.6396241296164
 30
0.0
 41
1.0
 10
91.86539889706123
 20
149.5993918805836
 30
0.0
 41
1.0
 10
91.7370972034602
 20
149.5644855660655
 30
0.0
 41
1.0
 10
91.60079812057685
 20
149.53793375751
 30
0.0
 41
1.0
 10
91.45790866085171
 20
149.5143549910464
 30
0.0
 41
1.0
 10
91.30729396790218
 20
149.5009178027281
 30
0.0
 41
1.0
 10
91.14984996413615
 20
149.4900273339086
 30
0.0
 41
1.0
 10
91.04214268288416
 20
149.4892380212698
 30
0.0
 41
1.0
 10
90.98702370769557
 20
149.488834092183
 30
0.0
 41
1.0
  0
LINE
  5
1DF
330
1F
100
AcDbEntity
  8
0
  6
Continuous
 62
     7
370
    15
100
AcDbLine
 10
91.75838287653978
 20
151.6297498905149
 30
0.0
 11
93.25289177223844
 21
151.2283284390266
 31
0.0
  0
SPLINE
  5
1E0
330
1F
100
AcDbEntity
  8
0
  6
Continuous
 62
     7
370
    15
100
AcDbSpline
210
0.0
220
0.0
230
1.0
 70
    12
 71
     3
 72
    23
 73
    19
 74
     0
 42
0.00000001
 43
0.00000001
 40
0.0
 40
0.0
 40
0.0
 40
0.0
 40
0.0676835610336983
 40
0.1314595813275896
 40
0.1917911870291184
 40
0.2490170271768639
 40
0.3039044618521437
 40
0.3568162002799501
 40
0.4082308663537484
 40
0.4601167861162571
 40
0.513181642573487
 40
0.5704694777685898
 40
0.6308010834701177
 40
0.6957705338533338
 40
0.7644063834743032
 40
0.8382731847413404
 40
0.9162347039955901
 40
1.0
 40
1.0
 40
1.0
 40
1.0
 10
90.87387786768488
 20
150.7481964853455
 30
0.0
 41
1.0
 10
90.90505902028711
 20
150.7486615887715
 30
0.0
 41
1.0
 10
90.96562115980515
 20
150.7495649440432
 30
0.0
 41
1.0
 10
91.05356384685989
 20
150.7594483971077
 30
0.0
 41
1.0
 10
91.13542757839012
 20
150.7763233058303
 30
0.0
 41
1.0
 10
91.21184886596029
 20
150.7984999914108
 30
0.0
 41
1.0
 10
91.28185399654527
 20
150.8284299855356
 30
0.0
 41
1.0
 10
91.34651504397182
 20
150.8634016202077
 30
0.0
 41
1.0
 10
91.40422749469673
 20
150.9067214152278
 30
0.0
 41
1.0
 10
91.4568040995708
 20
150.9561562349402
 30
0.0
 41
1.0
 10
91.50466020580274
 20
151.013740099566
 30
0.0
 41
1.0
 10
91.54939312923152
 20
151.0784563622189
 30
0.0
 41
1.0
 10
91.59226033629992
 20
151.1509120561255
 30
0.0
 41
1.0
 10
91.63090693089582
 20
151.2315201025426
 30
0.0
 41
1.0
 10
91.66777857312083
 20
151.3197237090112
 30
0.0
 41
1.0
 10
91.70062236806665
 20
151.4158604847568
 30
0.0
 41
1.0
 10
91.73138157654874
 20
151.5199465063126
 30
0.0
 41
1.0
 10
91.74916985601962
 20
151.5922836385067
 30
0.0
 41
1.0
 10
91.75838317350754
 20
151.6297501605591
 30
0.0
 41
1.0
  0
SPLINE
  5
1E1
330
1F
100
AcDbEntity
  8
0
  6
Continuous
 62
     7
370
    15
100
AcDbSpline
210
0.0
220
0.0
230
1.0
 70
    12
 71
     3
 72
    23
 73
    19
 74
     0
 42
0.00000001
 43
0.00000001
 40
0.0
 40
0.0
 40
0.0
 40
0.0
 40
0.1078793789154933
 40
0.2072153327702207
 40
0.2970657019368289
 40
0.3782960870438475
 40
0.4511541376065248
 40
0.515525394551539
 40
0.5736218099689846
 40
0.6249341897787765
 40
0.6729557300107255
 40
0.71938203781912
 40
0.7644221721488726
 40
0.8098267087823596
 40
0.855168242722742
 40
0.9020128140053503
 40
0.9500728568815214
 40
1.0
 40
1.0
 40
1.0
 40
1.0
 10
90.10448615561224
 20
152.0262525390313
 30
0.0
 41
1.0
 10
90.10493246920369
 20
151.9652379582074
 30
0.0
 41
1.0
 10
90.10578975092244
 20
151.8480407997107
 30
0.0
 41
1.0
 10
90.11554874453454
 20
151.6802514950904
 30
0.0
 41
1.0
 10
90.13177461379694
 20
151.5281086469242
 30
0.0
 41
1.0
 10
90.15525465373098
 20
151.3920654013738
 30
0.0
 41
1.0
 10
90.18421509925042
 20
151.2718654939693
 30
0.0
 41
1.0
 10
90.21915574301374
 20
151.1668561240648
 30
0.0
 41
1.0
 10
90.2619175368609
 20
151.0780201539678
 30
0.0
 41
1.0
 10
90.31216432984495
 20
151.0040502885525
 30
0.0
 41
1.0
 10
90.36870106033946
 20
150.9438146282447
 30
0.0
 41
1.0
 10
90.42745010123356
 20
150.8909274690085
 30
0.0
 41
1.0
 10
90.4916695187841
 20
150.8473999660429
 30
0.0
 41
1.0
 10
90.55922483067117
 20
150.8104897838894
 30
0.0
 41
1.0
 10
90.63231088166059
 20
150.7832386542144
 30
0.0
 41
1.0
 10
90.70889326382064
 20
150.7621501883663
 30
0.0
 41
1.0
 10
90.7902158394895
 20
150.7504289765126
 30
0.0
 41
1.0
 10
90.8456385072366
 20
150.7489500425342
 30
0.0
 41
1.0
 10
90.87387786768488
 20
150.7481964853455
 30
0.0
 41
1.0
  0
LINE
  5
203
330
1F
100
AcDbEntity
  8
0
  6
Continuous
 62
     7
370
    15
100
AcDbLine
 10
97.97550089729252
 20
150.8741327546824
 30
0.0
 11
97.97550089729252
 21
149.5518020916085
 31
0.0
  0
LINE
  5
204
330
1F
100
AcDbEntity
  8
0
  6
Continuous
 62
     7
370
    15
100
AcDbLine
 10
95.70864894943179
 20
150.8741327546824
 30
0.0
 11
97.97550089729252
 21
150.8741327546824
 31
0.0
  0
LINE
  5
205
330
1F
100
AcDbEntity
  8
0
  6
Continuous
 62
     7
370
    15
100
AcDbLine
 10
95.70864894943179
 20
154.463315365559
 30
0.0
 11
95.70864894943179
 21
150.8741327546824
 31
0.0
  0
LINE
  5
206
330
1F
100
AcDbEntity
  8
0
  6
Continuous
 62
     7
370
    15
100
AcDbLine
 10
94.00850944831811
 20
154.463315365559
 30
0.0
 11
95.70864894943179
 21
154.463315365559
 31
0.0
  0
LINE
  5
207
330
1F
100
AcDbEntity
  8
0
  6
Continuous
 62
     7
370
    15
100
AcDbLine
 10
94.00850944831811
 20
149.5518020916085
 30
0.0
 11
94.00850944831811
 21
154.463315365559
 31
0.0
  0
LINE
  5
208
330
1F
100
AcDbEntity
  8
0
  6
Continuous
 62
     7
370
    15
100
AcDbLine
 10
97.97550089729252
 20
149.5518020916085
 30
0.0
 11
94.00850944831811
 21
149.5518020916085
 31
0.0
  0
SPLINE
  5
209
330
1F
100
AcDbEntity
  8
0
  6
Continuous
 62
     7
370
    15
100
AcDbSpline
210
0.0
220
0.0
230
1.0
 70
    12
 71
     3
 72
    27
 73
    23
 74
     0
 42
0.00000001
 43
0.00000001
 40
0.0
 40
0.0
 40
0.0
 40
0.0
 40
0.0791834784653922
 40
0.1529224793053274
 40
0.2211730135450985
 40
0.2840527002635901
 40
0.3418207923898451
 40
0.3942273428452619
 40
0.4414604105497258
 40
0.4837969351909632
 40
0.5227645886159172
 40
0.5600244509011225
 40
0.5956972449090829
 40
0.630362434673843
 40
0.6637360912612092
 40
0.6959906738403211
 40
0.7275638537931357
 40
0.7586066196221901
 40
0.8192146140572217
 40
0.8788758071846183
 40
0.9388699156831023
 40
1.0
 40
1.0
 40
1.0
 40
1.0
 10
106.3286157362746
 20
152.8930480612002
 30
0.0
 41
1.0
 10
106.4093797975096
 20
152.8757166793568
 30
0.0
 41
1.0
 10
106.565354765043
 20
152.8422455824484
 30
0.0
 41
1.0
 10
106.7895483343567
 20
152.7877124377594
 30
0.0
 41
1.0
 10
106.996475121013
 20
152.7342370130104
 30
0.0
 41
1.0
 10
107.1856093973843
 20
152.6788531002676
 30
0.0
 41
1.0
 10
107.3576363072725
 20
152.6241052262659
 30
0.0
 41
1.0
 10
107.5125728587021
 20
152.5695731624156
 30
0.0
 41
1.0
 10
107.6496101162057
 20
152.513279419446
 30
0.0
 41
1.0
 10
107.7714133485771
 20
152.4570608957252
 30
0.0
 41
1.0
 10
107.8801363039847
 20
152.3979520499005
 30
0.0
 41
1.0
 10
107.9797775513536
 20
152.3370512272059
 30
0.0
 41
1.0
 10
108.0719375589714
 20
152.272853005147
 30
0.0
 41
1.0
 10
108.1564406525058
 20
152.2051610943305
 30
0.0
 41
1.0
 10
108.2334225526023
 20
152.1342047872672
 30
0.0
 41
1.0
 10
108.3029901169058
 20
152.0602709976601
 30
0.0
 41
1.0
 10
108.3638754138834
 20
151.9821020747176
 30
0.0
 41
1.0
 10
108.4356604857397
 20
151.8753789611613
 30
0.0
 41
1.0
 10
108.5086879180764
 20
151.7347039707915
 30
0.0
 41
1.0
 10
108.5709379042951
 20
151.5567821017853
 30
0.0
 41
1.0
 10
108.609743706301
 20
151.3713481316929
 30
0.0
 41
1.0
 10
108.6146414807379
 20
151.2449128447164
 30
0.0
 41
1.0
 10
108.6171133350994
 20
151.181102307995
 30
0.0
 41
1.0
  0
SPLINE
  5
20A
330
1F
100
AcDbEntity
  8
0
  6
Continuous
 62
     7
370
    15
100
AcDbSpline
210
0.0
220
0.0
230
1.0
 70
    12
 71
     3
 72
    11
 73
     7
 74
     0
 42
0.00000001
 43
0.00000001
 40
0.0
 40
0.0
 40
0.0
 40
0.0
 40
0.1638726213237812
 40
0.3809769623260371
 40
0.6591080924750704
 40
1.0
 40
1.0
 40
1.0
 40
1.0
 10
105.904564805452
 20
153.0504683603455
 30
0.0
 41
1.0
 10
105.9243831567882
 20
153.0351701068546
 30
0.0
 41
1.0
 10
105.9704575725714
 20
152.9996041770686
 30
0.0
 41
1.0
 10
106.064618178375
 20
152.9624242443676
 30
0.0
 41
1.0
 10
106.1856666869743
 20
152.9237986987853
 30
0.0
 41
1.0
 10
106.2778506405351
 20
152.9039684490496
 30
0.0
 41
1.0
 10
106.3286157362746
 20
152.8930480612002
 30
0.0
 41
1.0
  0
SPLINE
  5
20B
330
1F
100
AcDbEntity
  8
0
  6
Continuous
 62
     7
370
    15
100
AcDbSpline
210
0.0
220
0.0
230
1.0
 70
    12
 71
     3
 72
    11
 73
     7
 74
     0
 42
0.00000001
 43
0.00000001
 40
0.0
 40
0.0
 40
0.0
 40
0.0
 40
0.2885513440130961
 40
0.5389052394363589
 40
0.7760766685606881
 40
1.0
 40
1.0
 40
1.0
 40
1.0
 10
105.8465160701422
 20
153.2098564132301
 30
0.0
 41
1.0
 10
105.8471743402361
 20
153.1930310044861
 30
0.0
 41
1.0
 10
105.8484037408607
 20
153.1616074775614
 30
0.0
 41
1.0
 10
105.8600229545011
 20
153.1178539225969
 30
0.0
 41
1.0
 10
105.8765067855394
 20
153.0791897709861
 30
0.0
 41
1.0
 10
105.8953930107713
 20
153.0598570086591
 30
0.0
 41
1.0
 10
105.904564805452
 20
153.0504683603455
 30
0.0
 41
1.0
  0
SPLINE
  5
20C
330
1F
100
AcDbEntity
  8
0
  6
Continuous
 62
     7
370
    15
100
AcDbSpline
210
0.0
220
0.0
230
1.0
 70
    12
 71
     3
 72
    15
 73
    11
 74
     0
 42
0.00000001
 43
0.00000001
 40
0.0
 40
0.0
 40
0.0
 40
0.0
 40
0.1577172870457822
 40
0.2966893177809287
 40
0.4219570134486623
 40
0.5380860755489772
 40
0.6482296179266406
 40
0.7587648990953265
 40
0.8742858067255673
 40
1.0
 40
1.0
 40
1.0
 40
1.0
 10
106.2194054037426
 20
153.5187937503027
 30
0.0
 41
1.0
 10
106.190454872336
 20
153.5180915409836
 30
0.0
 41
1.0
 10
106.1359946823766
 20
153.516770582402
 30
0.0
 41
1.0
 10
106.0599014212791
 20
153.5007357900542
 30
0.0
 41
1.0
 10
105.9945320811893
 20
153.4754428774267
 30
0.0
 41
1.0
 10
105.9402608622898
 20
153.4397171423034
 30
0.0
 41
1.0
 10
105.8974834644403
 20
153.3943170425418
 30
0.0
 41
1.0
 10
105.8677007192624
 20
153.3397500580499
 30
0.0
 41
1.0
 10
105.8494690904944
 20
153.2772468046791
 30
0.0
 41
1.0
 10
105.8475277537104
 20
153.2329438774379
 30
0.0
 41
1.0
 10
105.8465160701422
 20
153.2098564132301
 30
0.0
 41
1.0
  0
SPLINE
  5
20D
330
1F
100
AcDbEntity
  8
0
  6
Continuous
 62
     7
370
    15
100
AcDbSpline
210
0.0
220
0.0
230
1.0
 70
    12
 71
     3
 72
    19
 73
    15
 74
     0
 42
0.00000001
 43
0.00000001
 40
0.0
 40
0.0
 40
0.0
 40
0.0
 40
0.087217413241923
 40
0.1676278951253223
 40
0.2429081946305464
 40
0.311728481607554
 40
0.3758347636125482
 40
0.4353730266241395
 40
0.4903701586926384
 40
0.5427732374124355
 40
0.6450261233069458
 40
0.7533479033825825
 40
0.8700124009004485
 40
1.0
 40
1.0
 40
1.0
 40
1.0
 10
106.862860876499
 20
152.8891125537215
 30
0.0
 41
1.0
 10
106.8580696448196
 20
152.9180688238966
 30
0.0
 41
1.0
 10
106.8488611157927
 20
152.9737214560914
 30
0.0
 41
1.0
 10
106.8281926722216
 20
153.0528275093612
 30
0.0
 41
1.0
 10
106.8073875237923
 20
153.1254322626037
 30
0.0
 41
1.0
 10
106.7828368664744
 20
153.1911199515099
 30
0.0
 41
1.0
 10
106.7542982257382
 20
153.2493533698735
 30
0.0
 41
1.0
 10
106.7226806384367
 20
153.3005012865119
 30
0.0
 41
1.0
 10
106.689389386402
 20
153.3459006826687
 30
0.0
 41
1.0
 10
106.6390838028844
 20
153.3956602812403
 30
0.0
 41
1.0
 10
106.5655915879078
 20
153.4460786425173
 30
0.0
 41
1.0
 10
106.46387569
 20
153.4899436194873
 30
0.0
 41
1.0
 10
106.3460911089196
 20
153.5138168647515
 30
0.0
 41
1.0
 10
106.2631277485816
 20
153.517076105001
 30
0.0
 41
1.0
 10
106.2194054037426
 20
153.5187937503027
 30
0.0
 41
1.0
  0
LINE
  5
20E
330
1F
100
AcDbEntity
  8
0
  6
Continuous
 62
     7
370
    15
100
AcDbLine
 10
108.4911769816868
 20
152.9796289627477
 30
0.0
 11
106.8628608905149
 21
152.889112684039
 31
0.0
  0
SPLINE
  5
20F
330
1F
100
AcDbEntity
  8
0
  6
Continuous
 62
     7
370
    15
100
AcDbSpline
210
0.0
220
0.0
230
1.0
 70
    12
 71
     3
 72
    23
 73
    19
 74
     0
 42
0.00000001
 43
0.00000001
 40
0.0
 40
0.0
 40
0.0
 40
0.0
 40
0.0808063786974621
 40
0.1567738545975834
 40
0.2284963943349864
 40
0.2962724126684944
 40
0.3597185713834231
 40
0.4199786545300903
 40
0.4775420181307308
 40
0.5325074255758573
 40
0.5861643761864498
 40
0.6397322608604883
 40
0.6940344501223716
 40
0.7495075120994582
 40
0.8075693616475004
 40
0.8680945504417252
 40
0.9321610174270012
 40
1.0
 40
1.0
 40
1.0
 40
1.0
 10
106.3817450872362
 20
154.5262836648326
 30
0.0
 41
1.0
 10
106.4608128354274
 20
154.5251324215368
 30
0.0
 41
1.0
 10
106.6142135428728
 20
154.5228988744831
 30
0.0
 41
1.0
 10
106.8373057913008
 20
154.5062051897017
 30
0.0
 41
1.0
 10
107.0463814490682
 20
154.4781088035382
 30
0.0
 41
1.0
 10
107.2410317926151
 20
154.4380399695739
 30
0.0
 41
1.0
 10
107.421517829183
 20
154.3870955396925
 30
0.0
 41
1.0
 10
107.5876412666572
 20
154.3242377050842
 30
0.0
 41
1.0
 10
107.7395414931482
 20
154.2494681968162
 30
0.0
 41
1.0
 10
107.8780385155739
 20
154.1636428575293
 30
0.0
 41
1.0
 10
108.0021785599788
 20
154.064220158885
 30
0.0
 41
1.0
 10
108.1136339724385
 20
153.9515375953276
 30
0.0
 41
1.0
 10
108.2096988239674
 20
153.8233545724392
 30
0.0
 41
1.0
 10
108.2948258919443
 20
153.6825118204185
 30
0.0
 41
1.0
 10
108.3635439933551
 20
153.5262807551044
 30
0.0
 41
1.0
 10
108.4211980927161
 20
153.3569192606204
 30
0.0
 41
1.0
 10
108.4643070668379
 20
153.1732750993633
 30
0.0
 41
1.0
 10
108.482051257301
 20
153.0453969615642
 30
0.0
 41
1.0
 10
108.4911770957831
 20
152.9796292257301
 30
0.0
 41
1.0
  0
SPLINE
  5
210
330
1F
100
AcDbEntity
  8
0
  6
Continuous
 62
     7
370
    15
100
AcDbSpline
210
0.0
220
0.0
230
1.0
 70
    12
 71
     3
 72
    27
 73
    23
 74
     0
 42
0.00000001
 43
0.00000001
 40
0.0
 40
0.0
 40
0.0
 40
0.0
 40
0.066263652511425
 40
0.1316365042889936
 40
0.1982152857477681
 40
0.267235315225129
 40
0.3027843157504758
 40
0.3384781595485021
 40
0.3747989017560585
 40
0.4117184394440726
 40
0.4494578481846696
 40
0.4884067522865387
 40
0.5285535422153975
 40
0.5700730209314341
 40
0.613761370165264
 40
0.6600104157750547
 40
0.7089319373095859
 40
0.7608478755935811
 40
0.8157679124971605
 40
0.8738982489605636
 40
0.9352715866494742
 40
1.0
 40
1.0
 40
1.0
 40
1.0
 10
104.2723130786892
 20
153.0780169126959
 30
0.0
 41
1.0
 10
104.2747982243577
 20
153.1415668857667
 30
0.0
 41
1.0
 10
104.2797351071895
 20
153.267812511923
 30
0.0
 41
1.0
 10
104.3247180984721
 20
153.4533840984877
 30
0.0
 41
1.0
 10
104.3948348414689
 20
153.6331664000528
 30
0.0
 41
1.0
 10
104.4768819372018
 20
153.7758267323396
 30
0.0
 41
1.0
 10
104.5555435182557
 20
153.8848605863344
 30
0.0
 41
1.0
 10
104.6230901848928
 20
153.9628001914168
 30
0.0
 41
1.0
 10
104.6967966287504
 20
154.0367601247113
 30
0.0
 41
1.0
 10
104.7777800295014
 20
154.1057966370486
 30
0.0
 41
1.0
 10
104.8659333756901
 20
154.1697093506289
 30
0.0
 41
1.0
 10
104.9603399867146
 20
154.2299240581353
 30
0.0
 41
1.0
 10
105.0620204871485
 20
154.2849321344445
 30
0.0
 41
1.0
 10
105.1709931322423
 20
154.3354959027045
 30
0.0
 41
1.0
 10
105.2885264427828
 20
154.3808716668266
 30
0.0
 41
1.0
 10
105.415642875394
 20
154.4203903732603
 30
0.0
 41
1.0
 10
105.5529995545072
 20
154.4519589731055
 30
0.0
 41
1.0
 10
105.699542442819
 20
154.4801966701112
 30
0.0
 41
1.0
 10
105.8563888070025
 20
154.4997830217852
 30
0.0
 41
1.0
 10
106.0226630100355
 20
154.5161333093727
 30
0.0
 41
1.0
 10
106.1989836139855
 20
154.5245930892034
 30
0.0
 41
1.0
 10
106.3197535240945
 20
154.5257102320188
 30
0.0
 41
1.0
 10
106.3817450872362
 20
154.5262836648326
 30
0.0
 41
1.0
  0
SPLINE
  5
211
330
1F
100
AcDbEntity
  8
0
  6
Continuous
 62
     7
370
    15
100
AcDbSpline
210
0.0
220
0.0
230
1.0
 70
    12
 71
     3
 72
    15
 73
    11
 74
     0
 42
0.00000001
 43
0.00000001
 40
0.0
 40
0.0
 40
0.0
 40
0.0
 40
0.1297975719725349
 40
0.2548657880203323
 40
0.3778533561641812
 40
0.4985402748730542
 40
0.6192975542240106
 40
0.7429934610620391
 40
0.8694318879897407
 40
1.0
 40
1.0
 40
1.0
 40
1.0
 10
104.7111221625566
 20
152.1148014573006
 30
0.0
 41
1.0
 10
104.6758659101442
 20
152.1464603922701
 30
0.0
 41
1.0
 10
104.6066380161458
 20
152.2086247246708
 30
0.0
 41
1.0
 10
104.5180749398618
 20
152.3146600276389
 30
0.0
 41
1.0
 10
104.4414648564757
 20
152.425461647947
 30
0.0
 41
1.0
 10
104.3805496399802
 20
152.5438995350944
 30
0.0
 41
1.0
 10
104.3312940789096
 20
152.6678879186281
 30
0.0
 41
1.0
 10
104.297470684919
 20
152.7991153731681
 30
0.0
 41
1.0
 10
104.2760765450092
 20
152.9366200527097
 30
0.0
 41
1.0
 10
104.2735809342902
 20
153.0303824221341
 30
0.0
 41
1.0
 10
104.2723130786892
 20
153.0780169126959
 30
0.0
 41
1.0
  0
SPLINE
  5
212
330
1F
100
AcDbEntity
  8
0
  6
Continuous
 62
     7
370
    15
100
AcDbSpline
210
0.0
220
0.0
230
1.0
 70
    12
 71
     3
 72
    15
 73
    11
 74
     0
 42
0.00000001
 43
0.00000001
 40
0.0
 40
0.0
 40
0.0
 40
0.0
 40
0.1585309627846477
 40
0.3067656184806427
 40
0.4449619553175006
 40
0.5732092333255339
 40
0.6926786530015231
 40
0.8032625156879059
 40
0.905575303322185
 40
1.0
 40
1.0
 40
1.0
 40
1.0
 10
106.1239693473857
 20
151.526443089245
 30
0.0
 41
1.0
 10
106.0444435270775
 20
151.544823074878
 30
0.0
 41
1.0
 10
105.8905569485598
 20
151.5803892984179
 30
0.0
 41
1.0
 10
105.6699482381423
 20
151.6424325825542
 30
0.0
 41
1.0
 10
105.4671183416183
 20
151.7092258442549
 30
0.0
 41
1.0
 10
105.2813307087252
 20
151.7798249232524
 30
0.0
 41
1.0
 10
105.1127779164813
 20
151.8551088251978
 30
0.0
 41
1.0
 10
104.9617521463462
 20
151.9357524254151
 30
0.0
 41
1.0
 10
104.8278064273985
 20
152.020549597209
 30
0.0
 41
1.0
 10
104.7489631908019
 20
152.0842353196579
 30
0.0
 41
1.0
 10
104.7111221625566
 20
152.1148014573006
 30
0.0
 41
1.0
  0
SPLINE
  5
213
330
1F
100
AcDbEntity
  8
0
  6
Continuous
 62
     7
370
    15
100
AcDbSpline
210
0.0
220
0.0
230
1.0
 70
    12
 71
     3
 72
    15
 73
    11
 74
     0
 42
0.00000001
 43
0.00000001
 40
0.0
 40
0.0
 40
0.0
 40
0.0
 40
0.0699165960901856
 40
0.1539211465444196
 40
0.254324631286113
 40
0.3706201682590624
 40
0.5021074693358927
 40
0.6510277189774639
 40
0.816834157367033
 40
1.0
 40
1.0
 40
1.0
 40
1.0
 10
106.8441672159755
 20
151.2676834725249
 30
0.0
 41
1.0
 10
106.8303873056441
 20
151.2792971424158
 30
0.0
 41
1.0
 10
106.8000508803017
 20
151.3048645968566
 30
0.0
 41
1.0
 10
106.7421822942587
 20
151.3359850854744
 30
0.0
 41
1.0
 10
106.6727065690116
 20
151.3698323885765
 30
0.0
 41
1.0
 10
106.5888617712989
 20
151.4016255204324
 30
0.0
 41
1.0
 10
106.4916966218167
 20
151.4326494419043
 30
0.0
 41
1.0
 10
106.3817410494907
 20
151.4655256290906
 30
0.0
 41
1.0
 10
106.2574856094671
 20
151.496510694957
 30
0.0
 41
1.0
 10
106.1699266234428
 20
151.5161401397323
 30
0.0
 41
1.0
 10
106.1239693473857
 20
151.526443089245
 30
0.0
 41
1.0
  0
SPLINE
  5
214
330
1F
100
AcDbEntity
  8
0
  6
Continuous
 62
     7
370
    15
100
AcDbSpline
210
0.0
220
0.0
230
1.0
 70
    12
 71
     3
 72
    11
 73
     7
 74
     0
 42
0.00000001
 43
0.00000001
 40
0.0
 40
0.0
 40
0.0
 40
0.0
 40
0.2390161746079622
 40
0.4767884771214775
 40
0.7284760530134187
 40
1.0
 40
1.0
 40
1.0
 40
1.0
 10
106.9799422239883
 20
150.9843269340633
 30
0.0
 41
1.0
 10
106.9780895776516
 20
151.0100910696618
 30
0.0
 41
1.0
 10
106.974393926397
 20
151.0614852608561
 30
0.0
 41
1.0
 10
106.9487027286487
 20
151.1366655341131
 30
0.0
 41
1.0
 10
106.9040565878117
 20
151.2062852614144
 30
0.0
 41
1.0
 10
106.8646286138118
 20
151.2467065748642
 30
0.0
 41
1.0
 10
106.8441672159755
 20
151.2676834725249
 30
0.0
 41
1.0
  0
SPLINE
  5
215
330
1F
100
AcDbEntity
  8
0
  6
Continuous
 62
     7
370
    15
100
AcDbSpline
210
0.0
220
0.0
230
1.0
 70
    12
 71
     3
 72
    15
 73
    11
 74
     0
 42
0.00000001
 43
0.00000001
 40
0.0
 40
0.0
 40
0.0
 40
0.0
 40
0.1669794836556813
 40
0.3147026610098545
 40
0.4481494553970158
 40
0.572470393121835
 40
0.6886193279526511
 40
0.7958196772304529
 40
0.8981450362420825
 40
1.0
 40
1.0
 40
1.0
 40
1.0
 10
106.405358132108
 20
150.559292126371
 30
0.0
 41
1.0
 10
106.4497732150197
 20
150.5604842668006
 30
0.0
 41
1.0
 10
106.5334813717062
 20
150.562731068367
 30
0.0
 41
1.0
 10
106.6505512943102
 20
150.5876535725394
 30
0.0
 41
1.0
 10
106.7513281489003
 20
150.6275104955146
 30
0.0
 41
1.0
 10
106.8339017555842
 20
150.6842436977415
 30
0.0
 41
1.0
 10
106.8979033720555
 20
150.7515801222825
 30
0.0
 41
1.0
 10
106.945701976584
 20
150.8242019209386
 30
0.0
 41
1.0
 10
106.9750597005557
 20
150.9028200726936
 30
0.0
 41
1.0
 10
106.9783172177581
 20
150.9571997406438
 30
0.0
 41
1.0
 10
106.9799422239883
 20
150.9843269340633
 30
0.0
 41
1.0
  0
SPLINE
  5
216
330
1F
100
AcDbEntity
  8
0
  6
Continuous
 62
     7
370
    15
100
AcDbSpline
210
0.0
220
0.0
230
1.0
 70
    12
 71
     3
 72
    15
 73
    11
 74
     0
 42
0.00000001
 43
0.00000001
 40
0.0
 40
0.0
 40
0.0
 40
0.0
 40
0.1324852866760829
 40
0.2587721177337391
 40
0.3805814759519959
 40
0.5020041534078201
 40
0.6219630288507312
 40
0.7446042858140854
 40
0.86910720042482
 40
1.0
 40
1.0
 40
1.0
 40
1.0
 10
105.8750484993623
 20
150.8259227580484
 30
0.0
 41
1.0
 10
105.891948066225
 20
150.804508940871
 30
0.0
 41
1.0
 10
105.9249565369435
 20
150.7626831732046
 30
0.0
 41
1.0
 10
105.9816204246869
 20
150.7083136497874
 30
0.0
 41
1.0
 10
106.0423159287153
 20
150.6622351525917
 30
0.0
 41
1.0
 10
106.10740190477
 20
150.6252580879868
 30
0.0
 41
1.0
 10
106.1759928803789
 20
150.5946728473965
 30
0.0
 41
1.0
 10
106.2490469784842
 20
150.5748526544513
 30
0.0
 41
1.0
 10
106.3258000836436
 20
150.5610567750138
 30
0.0
 41
1.0
 10
106.3784001063804
 20
150.5598900727062
 30
0.0
 41
1.0
 10
106.405358132108
 20
150.559292126371
 30
0.0
 41
1.0
  0
LINE
  5
217
330
1F
100
AcDbEntity
  8
0
  6
Continuous
 62
     7
370
    15
100
AcDbLine
 10
104.0834086900755
 20
151.2844096115155
 30
0.0
 11
105.7107410686669
 21
151.3778778720688
 31
0.0
  0
SPLINE
  5
218
330
1F
100
AcDbEntity
  8
0
  6
Continuous
 62
     7
370
    15
100
AcDbSpline
210
0.0
220
0.0
230
1.0
 70
    12
 71
     3
 72
    23
 73
    19
 74
     0
 42
0.00000001
 43
0.00000001
 40
0.0
 40
0.0
 40
0.0
 40
0.0
 40
0.0910786101955557
 40
0.1755395711599867
 40
0.2531364354943444
 40
0.3242433572320578
 40
0.3900395004898995
 40
0.4506698004679691
 40
0.507152414949953
 40
0.5605124659758861
 40
0.6127220042175066
 40
0.6647836942601243
 40
0.7170026190998519
 40
0.7701493177545666
 40
0.824653580556709
 40
0.8809963971251082
 40
0.9393102041684226
 40
1.0
 40
1.0
 40
1.0
 40
1.0
 10
106.3709224416699
 20
149.488834092183
 30
0.0
 41
1.0
 10
106.2708531381263
 20
149.4903340611355
 30
0.0
 41
1.0
 10
106.0779854319478
 20
149.4932250133153
 30
0.0
 41
1.0
 10
105.8005330789193
 20
149.5154519015205
 30
0.0
 41
1.0
 10
105.5469682801954
 20
149.5532971774116
 30
0.0
 41
1.0
 10
105.3169848695114
 20
149.6058851345969
 30
0.0
 41
1.0
 10
105.1104352734923
 20
149.6738229472298
 30
0.0
 41
1.0
 10
104.9277615959418
 20
149.7586666822944
 30
0.0
 41
1.0
 10
104.7683052534738
 20
149.8579940832632
 30
0.0
 41
1.0
 10
104.6323622970253
 20
149.9740508034904
 30
0.0
 41
1.0
 10
104.5175599382878
 20
150.1041601176331
 30
0.0
 41
1.0
 10
104.4144471129303
 20
150.2419640696006
 30
0.0
 41
1.0
 10
104.3252063674762
 20
150.3905388826068
 30
0.0
 41
1.0
 10
104.2510239484765
 20
150.5499802674377
 30
0.0
 41
1.0
 10
104.1872129317954
 20
150.7187034896521
 30
0.0
 41
1.0
 10
104.138578623877
 20
150.898325050004
 30
0.0
 41
1.0
 10
104.1028092143807
 20
151.087869415427
 30
0.0
 41
1.0
 10
104.0899610586921
 20
151.2180298107405
 30
0.0
 41
1.0
 10
104.0834087197148
 20
151.2844093793091
 30
0.0
 41
1.0
  0
SPLINE
  5
219
330
1F
100
AcDbEntity
  8
0
  6
Continuous
 62
     7
370
    15
100
AcDbSpline
210
0.0
220
0.0
230
1.0
 70
    12
 71
     3
 72
    31
 73
    27
 74
     0
 42
0.00000001
 43
0.00000001
 40
0.0
 40
0.0
 40
0.0
 40
0.0
 40
0.0361814785092326
 40
0.0719483294198384
 40
0.1077762564888083
 40
0.1432375188174178
 40
0.1792210584254219
 40
0.2152410357035875
 40
0.252190524550131
 40
0.289827892571773
 40
0.3278045280781527
 40
0.3656414559518948
 40
0.4035566322641123
 40
0.4420011909337193
 40
0.4809067967810852
 40
0.5205950312835369
 40
0.5616208024735718
 40
0.603314983048854
 40
0.646555948087987
 40
0.6911139504982621
 40
0.7375388576241484
 40
0.785834959810176
 40
0.8359605316793468
 40
0.8882874736656512
 40
0.9429468389301682
 40
1.0
 40
1.0
 40
1.0
 40
1.0
 10
108.6171133350994
 20
151.181102307995
 30
0.0
 41
1.0
 10
108.6164609183495
 20
151.1430190961673
 30
0.0
 41
1.0
 10
108.6151635613266
 20
151.0672890933359
 30
0.0
 41
1.0
 10
108.6015021503795
 20
150.9545583391833
 30
0.0
 41
1.0
 10
108.5812068584074
 20
150.8437097263832
 30
0.0
 41
1.0
 10
108.5524623604184
 20
150.734438733961
 30
0.0
 41
1.0
 10
108.5150652976817
 20
150.6276301619992
 30
0.0
 41
1.0
 10
108.4694453067174
 20
150.5223544526212
 30
0.0
 41
1.0
 10
108.4151294821063
 20
150.4193373357786
 30
0.0
 41
1.0
 10
108.3535029031675
 20
150.3181105241214
 30
0.0
 41
1.0
 10
108.2838922359801
 20
150.2209941670417
 30
0.0
 41
1.0
 10
108.2068693977547
 20
150.1293062316613
 30
0.0
 41
1.0
 10
108.1230666772702
 20
150.0429965093157
 30
0.0
 41
1.0
 10
108.0309373077478
 20
149.9640093488218
 30
0.0
 41
1.0
 10
107.9338192084865
 20
149.8881267199814
 30
0.0
 41
1.0
 10
107.8274182300556
 20
149.8206431171143
 30
0.0
 41
1.0
 10
107.7149999582391
 20
149.7576747339088
 30
0.0
 41
1.0
 10
107.5948890804616
 20
149.701432073284
 30
0.0
 41
1.0
 10
107.4681524653004
 20
149.6511823922361
 30
0.0
 41
1.0
 10
107.3335560671733
 20
149.6082236969
 30
0.0
 41
1.0
 10
107.1919350211454
 20
149.5702194733149
 30
0.0
 41
1.0
 10
107.0421435393564
 20
149.5417316144585
 30
0.0
 41
1.0
 10
106.8853500884054
 20
149.5175272307446
 30
0.0
 41
1.0
 10
106.7207726856957
 20
149.5016134073198
 30
0.0
 41
1.0
 10
106.5485181881263
 20
149.4898608637025
 30
0.0
 41
1.0
 10
106.4309607046826
 20
149.4891812039792
 30
0.0
 41
1.0
 10
106.3709224416699
 20
149.488834092183
 30
0.0
 41
1.0
  0
SPLINE
  5
21A
330
1F
100
AcDbEntity
  8
0
  6
Continuous
 62
     7
370
    15
100
AcDbSpline
210
0.0
220
0.0
230
1.0
 70
    12
 71
     3
 72
    15
 73
    11
 74
     0
 42
0.00000001
 43
0.00000001
 40
0.0
 40
0.0
 40
0.0
 40
0.0
 40
0.1675865177360843
 40
0.3223345925271924
 40
0.4661098007182617
 40
0.5958775979273548
 40
0.7136514065980397
 40
0.8199124680880373
 40
0.9145473075848639
 40
1.0
 40
1.0
 40
1.0
 40
1.0
 10
105.7107410621293
 20
151.3778776819267
 30
0.0
 41
1.0
 10
105.7150945300478
 20
151.3457009982523
 30
0.0
 41
1.0
 10
105.7234679560639
 20
151.2838126174854
 30
0.0
 41
1.0
 10
105.7393951872151
 20
151.1949084150587
 30
0.0
 41
1.0
 10
105.7566315043408
 20
151.1137159917562
 30
0.0
 41
1.0
 10
105.77637707746
 20
151.040498565577
 30
0.0
 41
1.0
 10
105.7976747831265
 20
150.9752662121032
 30
0.0
 41
1.0
 10
105.8216040638324
 20
150.9183682390926
 30
0.0
 41
1.0
 10
105.8452763205156
 20
150.8679902457524
 30
0.0
 41
1.0
 10
105.8654676049876
 20
150.8394603683919
 30
0.0
 41
1.0
 10
105.8750484993623
 20
150.8259227580484
 30
0.0
 41
1.0
  0
LINE
  5
241
330
1F
100
AcDbEntity
  8
0
100
AcDbLine
 10
113.4992557460312
 20
149.5518020916085
 30
0.0
 11
113.5286268051364
 21
149.5811731507137
 31
0.0
  0
LINE
  5
242
330
1F
100
AcDbEntity
  8
0
100
AcDbLine
 10
113.4617790866284
 20
149.5518020916085
 30
0.0
 11
113.5286268051364
 21
149.6186498101166
 31
0.0
  0
LINE
  5
243
330
1F
100
AcDbEntity
  8
0
100
AcDbLine
 10
113.4243024272255
 20
149.5518020916085
 30
0.0
 11
113.5286268051364
 21
149.6561264695194
 31
0.0
  0
LINE
  5
244
330
1F
100
AcDbEntity
  8
0
100
AcDbLine
 10
113.3868257678226
 20
149.5518020916085
 30
0.0
 11
113.5286268051364
 21
149.6936031289223
 31
0.0
  0
LINE
  5
245
330
1F
100
AcDbEntity
  8
0
100
AcDbLine
 10
113.3493491084197
 20
149.5518020916085
 30
0.0
 11
113.5286268051364
 21
149.7310797883252
 31
0.0
  0
LINE
  5
246
330
1F
100
AcDbEntity
  8
0
100
AcDbLine
 10
113.3118724490168
 20
149.5518020916085
 30
0.0
 11
113.5286268051364
 21
149.7685564477281
 31
0.0
  0
LINE
  5
247
330
1F
100
AcDbEntity
  8
0
100
AcDbLine
 10
113.2743957896139
 20
149.5518020916085
 30
0.0
 11
113.5286268051364
 21
149.806033107131
 31
0.0
  0
LINE
  5
248
330
1F
100
AcDbEntity
  8
0
100
AcDbLine
 10
113.236919130211
 20
149.5518020916085
 30
0.0
 11
113.5286268051364
 21
149.8435097665339
 31
0.0
  0
LINE
  5
249
330
1F
100
AcDbEntity
  8
0
100
AcDbLine
 10
113.1994424708082
 20
149.5518020916085
 30
0.0
 11
113.5286268051364
 21
149.8809864259367
 31
0.0
  0
LINE
  5
24A
330
1F
100
AcDbEntity
  8
0
100
AcDbLine
 10
113.1619658114053
 20
149.5518020916085
 30
0.0
 11
113.5286268051364
 21
149.9184630853396
 31
0.0
  0
LINE
  5
24B
330
1F
100
AcDbEntity
  8
0
100
AcDbLine
 10
113.1244891520024
 20
149.5518020916085
 30
0.0
 11
113.5286268051364
 21
149.9559397447425
 31
0.0
  0
LINE
  5
24C
330
1F
100
AcDbEntity
  8
0
100
AcDbLine
 10
113.0870124925995
 20
149.5518020916085
 30
0.0
 11
113.5286268051364
 21
149.9934164041454
 31
0.0
  0
LINE
  5
24D
330
1F
100
AcDbEntity
  8
0
100
AcDbLine
 10
113.0495358331966
 20
149.5518020916085
 30
0.0
 11
113.5286268051364
 21
150.0308930635483
 31
0.0
  0
LINE
  5
24E
330
1F
100
AcDbEntity
  8
0
100
AcDbLine
 10
113.0120591737937
 20
149.5518020916085
 30
0.0
 11
113.5286268051364
 21
150.0683697229512
 31
0.0
  0
LINE
  5
24F
330
1F
100
AcDbEntity
  8
0
100
AcDbLine
 10
112.9745825143908
 20
149.5518020916085
 30
0.0
 11
113.5286268051364
 21
150.105846382354
 31
0.0
  0
LINE
  5
250
330
1F
100
AcDbEntity
  8
0
100
AcDbLine
 10
112.937105854988
 20
149.5518020916085
 30
0.0
 11
113.5286268051364
 21
150.1433230417569
 31
0.0
  0
LINE
  5
251
330
1F
100
AcDbEntity
  8
0
100
AcDbLine
 10
112.8996291955851
 20
149.5518020916085
 30
0.0
 11
113.5286268051364
 21
150.1807997011598
 31
0.0
  0
LINE
  5
252
330
1F
100
AcDbEntity
  8
0
100
AcDbLine
 10
112.8621525361822
 20
149.5518020916085
 30
0.0
 11
113.5286268051364
 21
150.2182763605627
 31
0.0
  0
LINE
  5
253
330
1F
100
AcDbEntity
  8
0
100
AcDbLine
 10
112.8246758767793
 20
149.5518020916085
 30
0.0
 11
113.5286268051364
 21
150.2557530199656
 31
0.0
  0
LINE
  5
254
330
1F
100
AcDbEntity
  8
0
100
AcDbLine
 10
112.7871992173764
 20
149.5518020916085
 30
0.0
 11
113.5286268051364
 21
150.2932296793685
 31
0.0
  0
LINE
  5
255
330
1F
100
AcDbEntity
  8
0
100
AcDbLine
 10
112.7497225579735
 20
149.5518020916085
 30
0.0
 11
113.5286268051364
 21
150.3307063387713
 31
0.0
  0
LINE
  5
256
330
1F
100
AcDbEntity
  8
0
100
AcDbLine
 10
112.7122458985707
 20
149.5518020916085
 30
0.0
 11
113.5286268051364
 21
150.3681829981742
 31
0.0
  0
LINE
  5
257
330
1F
100
AcDbEntity
  8
0
100
AcDbLine
 10
112.6747692391678
 20
149.5518020916085
 30
0.0
 11
113.5286268051364
 21
150.4056596575771
 31
0.0
  0
LINE
  5
258
330
1F
100
AcDbEntity
  8
0
100
AcDbLine
 10
112.6372925797649
 20
149.5518020916085
 30
0.0
 11
113.5286268051364
 21
150.44313631698
 31
0.0
  0
LINE
  5
259
330
1F
100
AcDbEntity
  8
0
100
AcDbLine
 10
112.599815920362
 20
149.5518020916085
 30
0.0
 11
113.5286268051364
 21
150.4806129763829
 31
0.0
  0
LINE
  5
25A
330
1F
100
AcDbEntity
  8
0
100
AcDbLine
 10
112.5623392609591
 20
149.5518020916085
 30
0.0
 11
113.5286268051364
 21
150.5180896357857
 31
0.0
  0
LINE
  5
25B
330
1F
100
AcDbEntity
  8
0
100
AcDbLine
 10
112.5248626015562
 20
149.5518020916085
 30
0.0
 11
113.5286268051364
 21
150.5555662951886
 31
0.0
  0
LINE
  5
25C
330
1F
100
AcDbEntity
  8
0
100
AcDbLine
 10
112.4873859421534
 20
149.5518020916085
 30
0.0
 11
113.5286268051364
 21
150.5930429545915
 31
0.0
  0
LINE
  5
25D
330
1F
100
AcDbEntity
  8
0
100
AcDbLine
 10
112.4499092827505
 20
149.5518020916085
 30
0.0
 11
113.5286268051364
 21
150.6305196139944
 31
0.0
  0
LINE
  5
25E
330
1F
100
AcDbEntity
  8
0
100
AcDbLine
 10
112.4124326233476
 20
149.5518020916085
 30
0.0
 11
113.5286268051364
 21
150.6679962733973
 31
0.0
  0
LINE
  5
25F
330
1F
100
AcDbEntity
  8
0
100
AcDbLine
 10
112.3749559639447
 20
149.5518020916085
 30
0.0
 11
113.5286268051364
 21
150.7054729328002
 31
0.0
  0
LINE
  5
260
330
1F
100
AcDbEntity
  8
0
100
AcDbLine
 10
112.3374793045418
 20
149.5518020916085
 30
0.0
 11
113.5286268051364
 21
150.742949592203
 31
0.0
  0
LINE
  5
261
330
1F
100
AcDbEntity
  8
0
100
AcDbLine
 10
112.3000026451389
 20
149.5518020916085
 30
0.0
 11
113.5286268051364
 21
150.7804262516059
 31
0.0
  0
LINE
  5
262
330
1F
100
AcDbEntity
  8
0
100
AcDbLine
 10
112.2625259857361
 20
149.5518020916085
 30
0.0
 11
113.5218882389551
 21
150.8111643448275
 31
0.0
  0
LINE
  5
263
330
1F
100
AcDbEntity
  8
0
100
AcDbLine
 10
112.2250493263331
 20
149.5518020916085
 30
0.0
 11
113.4844115795522
 21
150.8111643448275
 31
0.0
  0
LINE
  5
264
330
1F
100
AcDbEntity
  8
0
100
AcDbLine
 10
112.1875726669303
 20
149.5518020916085
 30
0.0
 11
113.4469349201493
 21
150.8111643448275
 31
0.0
  0
LINE
  5
265
330
1F
100
AcDbEntity
  8
0
100
AcDbLine
 10
112.1500960075274
 20
149.5518020916085
 30
0.0
 11
113.4094582607464
 21
150.8111643448275
 31
0.0
  0
LINE
  5
266
330
1F
100
AcDbEntity
  8
0
100
AcDbLine
 10
112.1126193481245
 20
149.5518020916085
 30
0.0
 11
113.3719816013435
 21
150.8111643448275
 31
0.0
  0
LINE
  5
267
330
1F
100
AcDbEntity
  8
0
100
AcDbLine
 10
112.0751426887216
 20
149.5518020916085
 30
0.0
 11
113.3345049419406
 21
150.8111643448275
 31
0.0
  0
LINE
  5
268
330
1F
100
AcDbEntity
  8
0
100
AcDbLine
 10
112.0376660293188
 20
149.5518020916085
 30
0.0
 11
113.2970282825377
 21
150.8111643448275
 31
0.0
  0
LINE
  5
269
330
1F
100
AcDbEntity
  8
0
100
AcDbLine
 10
112.0001893699159
 20
149.5518020916085
 30
0.0
 11
113.2595516231348
 21
150.8111643448275
 31
0.0
  0
LINE
  5
26A
330
1F
100
AcDbEntity
  8
0
100
AcDbLine
 10
111.962712710513
 20
149.5518020916085
 30
0.0
 11
113.222074963732
 21
150.8111643448275
 31
0.0
  0
LINE
  5
26B
330
1F
100
AcDbEntity
  8
0
100
AcDbLine
 10
111.9252360511101
 20
149.5518020916085
 30
0.0
 11
113.1845983043291
 21
150.8111643448275
 31
0.0
  0
LINE
  5
26C
330
1F
100
AcDbEntity
  8
0
100
AcDbLine
 10
111.8877593917072
 20
149.5518020916085
 30
0.0
 11
113.1471216449262
 21
150.8111643448275
 31
0.0
  0
LINE
  5
26D
330
1F
100
AcDbEntity
  8
0
100
AcDbLine
 10
111.8502827323043
 20
149.5518020916085
 30
0.0
 11
113.1096449855233
 21
150.8111643448275
 31
0.0
  0
LINE
  5
26E
330
1F
100
AcDbEntity
  8
0
100
AcDbLine
 10
111.8128060729014
 20
149.5518020916085
 30
0.0
 11
113.0721683261204
 21
150.8111643448275
 31
0.0
  0
LINE
  5
26F
330
1F
100
AcDbEntity
  8
0
100
AcDbLine
 10
111.7753294134986
 20
149.5518020916085
 30
0.0
 11
113.0346916667176
 21
150.8111643448275
 31
0.0
  0
LINE
  5
270
330
1F
100
AcDbEntity
  8
0
100
AcDbLine
 10
111.7378527540957
 20
149.5518020916085
 30
0.0
 11
112.9972150073147
 21
150.8111643448275
 31
0.0
  0
LINE
  5
271
330
1F
100
AcDbEntity
  8
0
100
AcDbLine
 10
111.7003760946928
 20
149.5518020916085
 30
0.0
 11
112.9597383479118
 21
150.8111643448275
 31
0.0
  0
LINE
  5
272
330
1F
100
AcDbEntity
  8
0
100
AcDbLine
 10
111.6628994352899
 20
149.5518020916085
 30
0.0
 11
112.9222616885089
 21
150.8111643448275
 31
0.0
  0
LINE
  5
273
330
1F
100
AcDbEntity
  8
0
100
AcDbLine
 10
111.625422775887
 20
149.5518020916085
 30
0.0
 11
112.884785029106
 21
150.8111643448275
 31
0.0
  0
LINE
  5
274
330
1F
100
AcDbEntity
  8
0
100
AcDbLine
 10
111.5879461164841
 20
149.5518020916085
 30
0.0
 11
112.8473083697031
 21
150.8111643448275
 31
0.0
  0
LINE
  5
275
330
1F
100
AcDbEntity
  8
0
100
AcDbLine
 10
111.5504694570812
 20
149.5518020916085
 30
0.0
 11
112.8098317103002
 21
150.8111643448275
 31
0.0
  0
LINE
  5
276
330
1F
100
AcDbEntity
  8
0
100
AcDbLine
 10
111.5129927976784
 20
149.5518020916085
 30
0.0
 11
112.7723550508973
 21
150.8111643448275
 31
0.0
  0
LINE
  5
277
330
1F
100
AcDbEntity
  8
0
100
AcDbLine
 10
111.4755161382755
 20
149.5518020916085
 30
0.0
 11
112.7348783914945
 21
150.8111643448275
 31
0.0
  0
LINE
  5
278
330
1F
100
AcDbEntity
  8
0
100
AcDbLine
 10
111.4380394788726
 20
149.5518020916085
 30
0.0
 11
112.6974017320916
 21
150.8111643448275
 31
0.0
  0
LINE
  5
279
330
1F
100
AcDbEntity
  8
0
100
AcDbLine
 10
111.4005628194697
 20
149.5518020916085
 30
0.0
 11
112.6599250726887
 21
150.8111643448275
 31
0.0
  0
LINE
  5
27A
330
1F
100
AcDbEntity
  8
0
100
AcDbLine
 10
111.3630861600668
 20
149.5518020916085
 30
0.0
 11
112.6224484132858
 21
150.8111643448275
 31
0.0
  0
LINE
  5
27B
330
1F
100
AcDbEntity
  8
0
100
AcDbLine
 10
111.3256095006639
 20
149.5518020916085
 30
0.0
 11
112.5849717538829
 21
150.8111643448275
 31
0.0
  0
LINE
  5
27C
330
1F
100
AcDbEntity
  8
0
100
AcDbLine
 10
111.2881328412611
 20
149.5518020916085
 30
0.0
 11
112.5474950944801
 21
150.8111643448275
 31
0.0
  0
LINE
  5
27D
330
1F
100
AcDbEntity
  8
0
100
AcDbLine
 10
111.2506561818582
 20
149.5518020916085
 30
0.0
 11
112.5100184350772
 21
150.8111643448275
 31
0.0
  0
LINE
  5
27E
330
1F
100
AcDbEntity
  8
0
100
AcDbLine
 10
113.2656361112149
 20
151.5667820209652
 30
0.0
 11
113.2767542464432
 21
151.5779001561935
 31
0.0
  0
LINE
  5
27F
330
1F
100
AcDbEntity
  8
0
100
AcDbLine
 10
111.2131795224553
 20
149.5518020916085
 30
0.0
 11
112.4725417756743
 21
150.8111643448275
 31
0.0
  0
LINE
  5
280
330
1F
100
AcDbEntity
  8
0
100
AcDbLine
 10
113.228159451812
 20
151.5667820209652
 30
0.0
 11
113.2767542464432
 21
151.6153768155964
 31
0.0
  0
LINE
  5
281
330
1F
100
AcDbEntity
  8
0
100
AcDbLine
 10
111.1757028630524
 20
149.5518020916085
 30
0.0
 11
112.4350651162714
 21
150.8111643448275
 31
0.0
  0
LINE
  5
282
330
1F
100
AcDbEntity
  8
0
100
AcDbLine
 10
113.1906827924091
 20
151.5667820209652
 30
0.0
 11
113.2767542464432
 21
151.6528534749993
 31
0.0
  0
LINE
  5
283
330
1F
100
AcDbEntity
  8
0
100
AcDbLine
 10
111.1382262036495
 20
149.5518020916085
 30
0.0
 11
112.3975884568685
 21
150.8111643448275
 31
0.0
  0
LINE
  5
284
330
1F
100
AcDbEntity
  8
0
100
AcDbLine
 10
113.1532061330063
 20
151.5667820209652
 30
0.0
 11
113.2767542464432
 21
151.6903301344022
 31
0.0
  0
LINE
  5
285
330
1F
100
AcDbEntity
  8
0
100
AcDbLine
 10
111.1007495442466
 20
149.5518020916085
 30
0.0
 11
112.3601117974656
 21
150.8111643448275
 31
0.0
  0
LINE
  5
286
330
1F
100
AcDbEntity
  8
0
100
AcDbLine
 10
113.1157294736034
 20
151.5667820209652
 30
0.0
 11
113.2767542464432
 21
151.727806793805
 31
0.0
  0
LINE
  5
287
330
1F
100
AcDbEntity
  8
0
100
AcDbLine
 10
111.0632728848438
 20
149.5518020916085
 30
0.0
 11
112.3226351380628
 21
150.8111643448275
 31
0.0
  0
LINE
  5
288
330
1F
100
AcDbEntity
  8
0
100
AcDbLine
 10
113.0782528142005
 20
151.5667820209652
 30
0.0
 11
113.2767542464432
 21
151.7652834532079
 31
0.0
  0
LINE
  5
289
330
1F
100
AcDbEntity
  8
0
100
AcDbLine
 10
111.0257962254409
 20
149.5518020916085
 30
0.0
 11
112.2851584786599
 21
150.8111643448275
 31
0.0
  0
LINE
  5
28A
330
1F
100
AcDbEntity
  8
0
100
AcDbLine
 10
113.0407761547976
 20
151.5667820209652
 30
0.0
 11
113.2767542464432
 21
151.8027601126108
 31
0.0
  0
LINE
  5
28B
330
1F
100
AcDbEntity
  8
0
100
AcDbLine
 10
110.988319566038
 20
149.5518020916085
 30
0.0
 11
112.247681819257
 21
150.8111643448275
 31
0.0
  0
LINE
  5
28C
330
1F
100
AcDbEntity
  8
0
100
AcDbLine
 10
113.0032994953947
 20
151.5667820209652
 30
0.0
 11
113.2767542464432
 21
151.8402367720137
 31
0.0
  0
LINE
  5
28D
330
1F
100
AcDbEntity
  8
0
100
AcDbLine
 10
110.9508429066351
 20
149.5518020916085
 30
0.0
 11
112.2102051598541
 21
150.8111643448275
 31
0.0
  0
LINE
  5
28E
330
1F
100
AcDbEntity
  8
0
100
AcDbLine
 10
112.9658228359918
 20
151.5667820209652
 30
0.0
 11
113.2767542464432
 21
151.8777134314166
 31
0.0
  0
LINE
  5
28F
330
1F
100
AcDbEntity
  8
0
100
AcDbLine
 10
110.9133662472322
 20
149.5518020916085
 30
0.0
 11
112.1727285004512
 21
150.8111643448275
 31
0.0
  0
LINE
  5
290
330
1F
100
AcDbEntity
  8
0
100
AcDbLine
 10
112.9283461765889
 20
151.5667820209652
 30
0.0
 11
113.2767542464432
 21
151.9151900908195
 31
0.0
  0
LINE
  5
291
330
1F
100
AcDbEntity
  8
0
100
AcDbLine
 10
110.8758895878293
 20
149.5518020916085
 30
0.0
 11
112.1352518410483
 21
150.8111643448275
 31
0.0
  0
LINE
  5
292
330
1F
100
AcDbEntity
  8
0
100
AcDbLine
 10
112.890869517186
 20
151.5667820209652
 30
0.0
 11
113.2767542464432
 21
151.9526667502224
 31
0.0
  0
LINE
  5
293
330
1F
100
AcDbEntity
  8
0
100
AcDbLine
 10
110.8384129284265
 20
149.5518020916085
 30
0.0
 11
112.0977751816454
 21
150.8111643448275
 31
0.0
  0
LINE
  5
294
330
1F
100
AcDbEntity
  8
0
100
AcDbLine
 10
112.8533928577832
 20
151.5667820209652
 30
0.0
 11
113.2767542464432
 21
151.9901434096252
 31
0.0
  0
LINE
  5
295
330
1F
100
AcDbEntity
  8
0
100
AcDbLine
 10
110.8009362690236
 20
149.5518020916085
 30
0.0
 11
112.0602985222426
 21
150.8111643448275
 31
0.0
  0
LINE
  5
296
330
1F
100
AcDbEntity
  8
0
100
AcDbLine
 10
112.8159161983803
 20
151.5667820209652
 30
0.0
 11
113.2767542464432
 21
152.0276200690281
 31
0.0
  0
LINE
  5
297
330
1F
100
AcDbEntity
  8
0
100
AcDbLine
 10
110.7634596096207
 20
149.5518020916085
 30
0.0
 11
112.0228218628397
 21
150.8111643448275
 31
0.0
  0
LINE
  5
298
330
1F
100
AcDbEntity
  8
0
100
AcDbLine
 10
112.7784395389774
 20
151.5667820209652
 30
0.0
 11
113.2767542464432
 21
152.065096728431
 31
0.0
  0
LINE
  5
299
330
1F
100
AcDbEntity
  8
0
100
AcDbLine
 10
110.7259829502178
 20
149.5518020916085
 30
0.0
 11
111.9853452034368
 21
150.8111643448275
 31
0.0
  0
LINE
  5
29A
330
1F
100
AcDbEntity
  8
0
100
AcDbLine
 10
112.7409628795745
 20
151.5667820209652
 30
0.0
 11
113.2767542464432
 21
152.1025733878339
 31
0.0
  0
LINE
  5
29B
330
1F
100
AcDbEntity
  8
0
100
AcDbLine
 10
110.6885062908149
 20
149.5518020916085
 30
0.0
 11
111.9478685440339
 21
150.8111643448275
 31
0.0
  0
LINE
  5
29C
330
1F
100
AcDbEntity
  8
0
100
AcDbLine
 10
112.7034862201717
 20
151.5667820209652
 30
0.0
 11
113.2767542464432
 21
152.1400500472368
 31
0.0
  0
LINE
  5
29D
330
1F
100
AcDbEntity
  8
0
100
AcDbLine
 10
110.651029631412
 20
149.5518020916085
 30
0.0
 11
111.910391884631
 21
150.8111643448275
 31
0.0
  0
LINE
  5
29E
330
1F
100
AcDbEntity
  8
0
100
AcDbLine
 10
112.6660095607687
 20
151.5667820209652
 30
0.0
 11
113.2767542464432
 21
152.1775267066397
 31
0.0
  0
LINE
  5
29F
330
1F
100
AcDbEntity
  8
0
100
AcDbLine
 10
110.6135529720092
 20
149.5518020916085
 30
0.0
 11
111.8729152252281
 21
150.8111643448275
 31
0.0
  0
LINE
  5
2A0
330
1F
100
AcDbEntity
  8
0
100
AcDbLine
 10
112.6285329013659
 20
151.5667820209652
 30
0.0
 11
113.2767542464432
 21
152.2150033660425
 31
0.0
  0
LINE
  5
2A1
330
1F
100
AcDbEntity
  8
0
100
AcDbLine
 10
110.5760763126063
 20
149.5518020916085
 30
0.0
 11
111.8354385658253
 21
150.8111643448275
 31
0.0
  0
LINE
  5
2A2
330
1F
100
AcDbEntity
  8
0
100
AcDbLine
 10
112.591056241963
 20
151.5667820209652
 30
0.0
 11
113.2767542464432
 21
152.2524800254454
 31
0.0
  0
LINE
  5
2A3
330
1F
100
AcDbEntity
  8
0
100
AcDbLine
 10
110.5385996532034
 20
149.5518020916085
 30
0.0
 11
111.7979619064224
 21
150.8111643448275
 31
0.0
  0
LINE
  5
2A4
330
1F
100
AcDbEntity
  8
0
100
AcDbLine
 10
112.5535795825601
 20
151.5667820209652
 30
0.0
 11
113.2767542464432
 21
152.2899566848483
 31
0.0
  0
LINE
  5
2A5
330
1F
100
AcDbEntity
  8
0
100
AcDbLine
 10
110.5011229938005
 20
149.5518020916085
 30
0.0
 11
111.7604852470195
 21
150.8111643448275
 31
0.0
  0
LINE
  5
2A6
330
1F
100
AcDbEntity
  8
0
100
AcDbLine
 10
112.5161029231572
 20
151.5667820209652
 30
0.0
 11
113.2767542464432
 21
152.3274333442512
 31
0.0
  0
LINE
  5
2A7
330
1F
100
AcDbEntity
  8
0
100
AcDbLine
 10
110.4636463343976
 20
149.5518020916085
 30
0.0
 11
111.7230085876166
 21
150.8111643448275
 31
0.0
  0
LINE
  5
2A8
330
1F
100
AcDbEntity
  8
0
100
AcDbLine
 10
112.4786262637543
 20
151.5667820209652
 30
0.0
 11
113.2767542464432
 21
152.3649100036541
 31
0.0
  0
LINE
  5
2A9
330
1F
100
AcDbEntity
  8
0
100
AcDbLine
 10
110.4261696749947
 20
149.5518020916085
 30
0.0
 11
111.6855319282137
 21
150.8111643448275
 31
0.0
  0
LINE
  5
2AA
330
1F
100
AcDbEntity
  8
0
100
AcDbLine
 10
112.4411496043514
 20
151.5667820209652
 30
0.0
 11
113.2767542464432
 21
152.402386663057
 31
0.0
  0
LINE
  5
2AB
330
1F
100
AcDbEntity
  8
0
100
AcDbLine
 10
110.3886930155919
 20
149.5518020916085
 30
0.0
 11
111.6480552688108
 21
150.8111643448275
 31
0.0
  0
LINE
  5
2AC
330
1F
100
AcDbEntity
  8
0
100
AcDbLine
 10
112.4036729449486
 20
151.5667820209652
 30
0.0
 11
113.2767542464432
 21
152.4398633224598
 31
0.0
  0
LINE
  5
2AD
330
1F
100
AcDbEntity
  8
0
100
AcDbLine
 10
110.351216356189
 20
149.5518020916085
 30
0.0
 11
111.610578609408
 21
150.8111643448275
 31
0.0
  0
LINE
  5
2AE
330
1F
100
AcDbEntity
  8
0
100
AcDbLine
 10
112.3661962855457
 20
151.5667820209652
 30
0.0
 11
113.2767542464432
 21
152.4773399818627
 31
0.0
  0
LINE
  5
2AF
330
1F
100
AcDbEntity
  8
0
100
AcDbLine
 10
110.3137396967861
 20
149.5518020916085
 30
0.0
 11
111.5731019500051
 21
150.8111643448275
 31
0.0
  0
LINE
  5
2B0
330
1F
100
AcDbEntity
  8
0
100
AcDbLine
 10
112.3287196261428
 20
151.5667820209652
 30
0.0
 11
113.2767542464432
 21
152.5148166412656
 31
0.0
  0
LINE
  5
2B1
330
1F
100
AcDbEntity
  8
0
100
AcDbLine
 10
110.2762630373832
 20
149.5518020916085
 30
0.0
 11
111.5356252906022
 21
150.8111643448275
 31
0.0
  0
LINE
  5
2B2
330
1F
100
AcDbEntity
  8
0
100
AcDbLine
 10
112.2912429667399
 20
151.5667820209652
 30
0.0
 11
113.2767542464432
 21
152.5522933006685
 31
0.0
  0
LINE
  5
2B3
330
1F
100
AcDbEntity
  8
0
100
AcDbLine
 10
110.2387863779803
 20
149.5518020916085
 30
0.0
 11
111.4981486311993
 21
150.8111643448275
 31
0.0
  0
LINE
  5
2B4
330
1F
100
AcDbEntity
  8
0
100
AcDbLine
 10
112.253766307337
 20
151.5667820209652
 30
0.0
 11
113.2767542464432
 21
152.5897699600714
 31
0.0
  0
LINE
  5
2B5
330
1F
100
AcDbEntity
  8
0
100
AcDbLine
 10
110.2013097185774
 20
149.5518020916085
 30
0.0
 11
111.4606719717964
 21
150.8111643448275
 31
0.0
  0
LINE
  5
2B6
330
1F
100
AcDbEntity
  8
0
100
AcDbLine
 10
112.2162896479341
 20
151.5667820209652
 30
0.0
 11
113.2767542464432
 21
152.6272466194743
 31
0.0
  0
LINE
  5
2B7
330
1F
100
AcDbEntity
  8
0
100
AcDbLine
 10
110.1638330591745
 20
149.5518020916085
 30
0.0
 11
111.4231953123935
 21
150.8111643448275
 31
0.0
  0
LINE
  5
2B8
330
1F
100
AcDbEntity
  8
0
100
AcDbLine
 10
112.1788129885312
 20
151.5667820209652
 30
0.0
 11
113.2492710929119
 21
152.6372401253458
 31
0.0
  0
LINE
  5
2B9
330
1F
100
AcDbEntity
  8
0
100
AcDbLine
 10
110.1263563997717
 20
149.5518020916085
 30
0.0
 11
111.3857186529907
 21
150.8111643448275
 31
0.0
  0
LINE
  5
2BA
330
1F
100
AcDbEntity
  8
0
100
AcDbLine
 10
112.1413363291284
 20
151.5667820209652
 30
0.0
 11
113.211794433509
 21
152.6372401253458
 31
0.0
  0
LINE
  5
2BB
330
1F
100
AcDbEntity
  8
0
100
AcDbLine
 10
110.0888797403688
 20
149.5518020916085
 30
0.0
 11
111.3482419935878
 21
150.8111643448275
 31
0.0
  0
LINE
  5
2BC
330
1F
100
AcDbEntity
  8
0
100
AcDbLine
 10
112.1038596697255
 20
151.5667820209652
 30
0.0
 11
113.1743177741061
 21
152.6372401253458
 31
0.0
  0
LINE
  5
2BD
330
1F
100
AcDbEntity
  8
0
100
AcDbLine
 10
110.0514030809659
 20
149.5518020916085
 30
0.0
 11
111.3107653341849
 21
150.8111643448275
 31
0.0
  0
LINE
  5
2BE
330
1F
100
AcDbEntity
  8
0
100
AcDbLine
 10
112.0663830103226
 20
151.5667820209652
 30
0.0
 11
113.1368411147032
 21
152.6372401253458
 31
0.0
  0
LINE
  5
2BF
330
1F
100
AcDbEntity
  8
0
100
AcDbLine
 10
110.013926421563
 20
149.5518020916085
 30
0.0
 11
111.273288674782
 21
150.8111643448275
 31
0.0
  0
LINE
  5
2C0
330
1F
100
AcDbEntity
  8
0
100
AcDbLine
 10
112.0289063509197
 20
151.5667820209652
 30
0.0
 11
113.0993644553003
 21
152.6372401253458
 31
0.0
  0
LINE
  5
2C1
330
1F
100
AcDbEntity
  8
0
100
AcDbLine
 10
109.9764497621601
 20
149.5518020916085
 30
0.0
 11
111.2358120153791
 21
150.8111643448275
 31
0.0
  0
LINE
  5
2C2
330
1F
100
AcDbEntity
  8
0
100
AcDbLine
 10
111.9914296915168
 20
151.5667820209652
 30
0.0
 11
113.0618877958974
 21
152.6372401253458
 31
0.0
  0
LINE
  5
2C3
330
1F
100
AcDbEntity
  8
0
100
AcDbLine
 10
109.9389731027572
 20
149.5518020916085
 30
0.0
 11
111.1983353559762
 21
150.8111643448275
 31
0.0
  0
LINE
  5
2C4
330
1F
100
AcDbEntity
  8
0
100
AcDbLine
 10
111.9539530321139
 20
151.5667820209652
 30
0.0
 11
113.0244111364945
 21
152.6372401253458
 31
0.0
  0
LINE
  5
2C5
330
1F
100
AcDbEntity
  8
0
100
AcDbLine
 10
109.9014964433543
 20
149.5518020916085
 30
0.0
 11
111.1608586965733
 21
150.8111643448275
 31
0.0
  0
LINE
  5
2C6
330
1F
100
AcDbEntity
  8
0
100
AcDbLine
 10
111.916476372711
 20
151.5667820209652
 30
0.0
 11
112.9869344770917
 21
152.6372401253458
 31
0.0
  0
LINE
  5
2C7
330
1F
100
AcDbEntity
  8
0
100
AcDbLine
 10
109.8640197839515
 20
149.5518020916085
 30
0.0
 11
111.1233820371705
 21
150.8111643448275
 31
0.0
  0
LINE
  5
2C8
330
1F
100
AcDbEntity
  8
0
100
AcDbLine
 10
111.8789997133082
 20
151.5667820209652
 30
0.0
 11
112.9494578176888
 21
152.6372401253458
 31
0.0
  0
LINE
  5
2C9
330
1F
100
AcDbEntity
  8
0
100
AcDbLine
 10
109.8265431245486
 20
149.5518020916085
 30
0.0
 11
111.0859053777676
 21
150.8111643448275
 31
0.0
  0
LINE
  5
2CA
330
1F
100
AcDbEntity
  8
0
100
AcDbLine
 10
111.8415230539053
 20
151.5667820209652
 30
0.0
 11
112.9119811582859
 21
152.6372401253458
 31
0.0
  0
LINE
  5
2CB
330
1F
100
AcDbEntity
  8
0
100
AcDbLine
 10
109.7890664651457
 20
149.5518020916085
 30
0.0
 11
111.0484287183647
 21
150.8111643448275
 31
0.0
  0
LINE
  5
2CC
330
1F
100
AcDbEntity
  8
0
100
AcDbLine
 10
111.8040463945024
 20
151.5667820209652
 30
0.0
 11
112.874504498883
 21
152.6372401253458
 31
0.0
  0
LINE
  5
2CD
330
1F
100
AcDbEntity
  8
0
100
AcDbLine
 10
113.4412174858192
 20
153.203953112282
 30
0.0
 11
113.4656583953395
 21
153.2283940218023
 31
0.0
  0
LINE
  5
2CE
330
1F
100
AcDbEntity
  8
0
100
AcDbLine
 10
109.7515898057428
 20
149.5518020916085
 30
0.0
 11
111.0109520589618
 21
150.8111643448275
 31
0.0
  0
LINE
  5
2CF
330
1F
100
AcDbEntity
  8
0
100
AcDbLine
 10
111.7665697350995
 20
151.5667820209652
 30
0.0
 11
112.8370278394801
 21
152.6372401253458
 31
0.0
  0
LINE
  5
2D0
330
1F
100
AcDbEntity
  8
0
100
AcDbLine
 10
113.4037408264163
 20
153.203953112282
 30
0.0
 11
113.4656583953395
 21
153.2658706812052
 31
0.0
  0
LINE
  5
2D1
330
1F
100
AcDbEntity
  8
0
100
AcDbLine
 10
109.7141131463399
 20
149.5518020916085
 30
0.0
 11
111.0099017583353
 21
150.8475907036039
 31
0.0
  0
LINE
  5
2D2
330
1F
100
AcDbEntity
  8
0
100
AcDbLine
 10
111.7290930756966
 20
151.5667820209652
 30
0.0
 11
112.7995511800772
 21
152.6372401253458
 31
0.0
  0
LINE
  5
2D3
330
1F
100
AcDbEntity
  8
0
100
AcDbLine
 10
113.3662641670134
 20
153.203953112282
 30
0.0
 11
113.4656583953395
 21
153.3033473406081
 31
0.0
  0
LINE
  5
2D4
330
1F
100
AcDbEntity
  8
0
100
AcDbLine
 10
109.676636486937
 20
149.5518020916085
 30
0.0
 11
111.0099017583353
 21
150.8850673630068
 31
0.0
  0
LINE
  5
2D5
330
1F
100
AcDbEntity
  8
0
100
AcDbLine
 10
111.6916164162937
 20
151.5667820209652
 30
0.0
 11
112.7620745206744
 21
152.6372401253458
 31
0.0
  0
LINE
  5
2D6
330
1F
100
AcDbEntity
  8
0
100
AcDbLine
 10
113.3287875076106
 20
153.203953112282
 30
0.0
 11
113.4656583953395
 21
153.3408240000109
 31
0.0
  0
LINE
  5
2D7
330
1F
100
AcDbEntity
  8
0
100
AcDbLine
 10
109.6391598275342
 20
149.5518020916085
 30
0.0
 11
111.0099017583353
 21
150.9225440224096
 31
0.0
  0
LINE
  5
2D8
330
1F
100
AcDbEntity
  8
0
100
AcDbLine
 10
111.6541397568909
 20
151.5667820209652
 30
0.0
 11
112.7245978612715
 21
152.6372401253458
 31
0.0
  0
LINE
  5
2D9
330
1F
100
AcDbEntity
  8
0
100
AcDbLine
 10
113.2913108482077
 20
153.203953112282
 30
0.0
 11
113.4656583953395
 21
153.3783006594138
 31
0.0
  0
LINE
  5
2DA
330
1F
100
AcDbEntity
  8
0
100
AcDbLine
 10
109.6016831681313
 20
149.5518020916085
 30
0.0
 11
111.0099017583353
 21
150.9600206818125
 31
0.0
  0
LINE
  5
2DB
330
1F
100
AcDbEntity
  8
0
100
AcDbLine
 10
111.616663097488
 20
151.5667820209652
 30
0.0
 11
112.6871212018686
 21
152.6372401253458
 31
0.0
  0
LINE
  5
2DC
330
1F
100
AcDbEntity
  8
0
100
AcDbLine
 10
113.2538341888048
 20
153.203953112282
 30
0.0
 11
113.4656583953395
 21
153.4157773188167
 31
0.0
  0
LINE
  5
2DD
330
1F
100
AcDbEntity
  8
0
100
AcDbLine
 10
109.5642065087284
 20
149.5518020916085
 30
0.0
 11
111.0099017583353
 21
150.9974973412154
 31
0.0
  0
LINE
  5
2DE
330
1F
100
AcDbEntity
  8
0
100
AcDbLine
 10
111.5791864380851
 20
151.5667820209652
 30
0.0
 11
112.6496445424657
 21
152.6372401253458
 31
0.0
  0
LINE
  5
2DF
330
1F
100
AcDbEntity
  8
0
100
AcDbLine
 10
113.2163575294019
 20
153.203953112282
 30
0.0
 11
113.4656583953395
 21
153.4532539782196
 31
0.0
  0
LINE
  5
2E0
330
1F
100
AcDbEntity
  8
0
100
AcDbLine
 10
109.5267298493255
 20
149.5518020916085
 30
0.0
 11
111.0099017583353
 21
151.0349740006183
 31
0.0
  0
LINE
  5
2E1
330
1F
100
AcDbEntity
  8
0
100
AcDbLine
 10
111.5417097786822
 20
151.5667820209652
 30
0.0
 11
112.6121678830628
 21
152.6372401253458
 31
0.0
  0
LINE
  5
2E2
330
1F
100
AcDbEntity
  8
0
100
AcDbLine
 10
113.178880869999
 20
153.203953112282
 30
0.0
 11
113.4656583953395
 21
153.4907306376225
 31
0.0
  0
LINE
  5
2E3
330
1F
100
AcDbEntity
  8
0
100
AcDbLine
 10
109.4892531899226
 20
149.5518020916085
 30
0.0
 11
111.0099017583353
 21
151.0724506600212
 31
0.0
  0
LINE
  5
2E4
330
1F
100
AcDbEntity
  8
0
100
AcDbLine
 10
111.5042331192793
 20
151.5667820209652
 30
0.0
 11
112.57469122366
 21
152.6372401253458
 31
0.0
  0
LINE
  5
2E5
330
1F
100
AcDbEntity
  8
0
100
AcDbLine
 10
113.1414042105961
 20
153.203953112282
 30
0.0
 11
113.4656583953395
 21
153.5282072970254
 31
0.0
  0
LINE
  5
2E6
330
1F
100
AcDbEntity
  8
0
100
AcDbLine
 10
109.4517765305198
 20
149.5518020916085
 30
0.0
 11
111.0099017583353
 21
151.109927319424
 31
0.0
  0
LINE
  5
2E7
330
1F
100
AcDbEntity
  8
0
100
AcDbLine
 10
111.4667564598764
 20
151.5667820209652
 30
0.0
 11
112.5372145642571
 21
152.6372401253458
 31
0.0
  0
LINE
  5
2E8
330
1F
100
AcDbEntity
  8
0
100
AcDbLine
 10
113.1039275511932
 20
153.203953112282
 30
0.0
 11
113.4656583953395
 21
153.5656839564282
 31
0.0
  0
LINE
  5
2E9
330
1F
100
AcDbEntity
  8
0
100
AcDbLine
 10
109.4142998711169
 20
149.5518020916085
 30
0.0
 11
111.0099017583353
 21
151.1474039788269
 31
0.0
  0
LINE
  5
2EA
330
1F
100
AcDbEntity
  8
0
100
AcDbLine
 10
111.4292798004736
 20
151.5667820209652
 30
0.0
 11
112.4997379048542
 21
152.6372401253458
 31
0.0
  0
LINE
  5
2EB
330
1F
100
AcDbEntity
  8
0
100
AcDbLine
 10
113.0664508917903
 20
153.203953112282
 30
0.0
 11
113.4656583953395
 21
153.6031606158311
 31
0.0
  0
LINE
  5
2EC
330
1F
100
AcDbEntity
  8
0
100
AcDbLine
 10
109.376823211714
 20
149.5518020916085
 30
0.0
 11
111.0099017583353
 21
151.1848806382298
 31
0.0
  0
LINE
  5
2ED
330
1F
100
AcDbEntity
  8
0
100
AcDbLine
 10
111.3918031410707
 20
151.5667820209652
 30
0.0
 11
112.4622612454513
 21
152.6372401253458
 31
0.0
  0
LINE
  5
2EE
330
1F
100
AcDbEntity
  8
0
100
AcDbLine
 10
113.0289742323875
 20
153.203953112282
 30
0.0
 11
113.4656583953395
 21
153.640637275234
 31
0.0
  0
LINE
  5
2EF
330
1F
100
AcDbEntity
  8
0
100
AcDbLine
 10
109.3393465523111
 20
149.5518020916085
 30
0.0
 11
111.0099017583353
 21
151.2223572976327
 31
0.0
  0
LINE
  5
2F0
330
1F
100
AcDbEntity
  8
0
100
AcDbLine
 10
111.3543264816678
 20
151.5667820209652
 30
0.0
 11
112.4247845860484
 21
152.6372401253458
 31
0.0
  0
LINE
  5
2F1
330
1F
100
AcDbEntity
  8
0
100
AcDbLine
 10
112.9914975729846
 20
153.203953112282
 30
0.0
 11
113.4656583953395
 21
153.6781139346369
 31
0.0
  0
LINE
  5
2F2
330
1F
100
AcDbEntity
  8
0
100
AcDbLine
 10
109.3097625273742
 20
149.5596947260745
 30
0.0
 11
111.0099017583353
 21
151.2598339570356
 31
0.0
  0
LINE
  5
2F3
330
1F
100
AcDbEntity
  8
0
100
AcDbLine
 10
111.3168498222649
 20
151.5667820209652
 30
0.0
 11
112.3873079266455
 21
152.6372401253458
 31
0.0
  0
LINE
  5
2F4
330
1F
100
AcDbEntity
  8
0
100
AcDbLine
 10
112.9540209135817
 20
153.203953112282
 30
0.0
 11
113.4656583953395
 21
153.7155905940398
 31
0.0
  0
LINE
  5
2F5
330
1F
100
AcDbEntity
  8
0
100
AcDbLine
 10
109.3097625273742
 20
149.5971713854774
 30
0.0
 11
111.0099017583353
 21
151.2973106164385
 31
0.0
  0
LINE
  5
2F6
330
1F
100
AcDbEntity
  8
0
100
AcDbLine
 10
111.279373162862
 20
151.5667820209652
 30
0.0
 11
112.3498312672426
 21
152.6372401253458
 31
0.0
  0
LINE
  5
2F7
330
1F
100
AcDbEntity
  8
0
100
AcDbLine
 10
112.9165442541788
 20
153.203953112282
 30
0.0
 11
113.4656583953395
 21
153.7530672534427
 31
0.0
  0
LINE
  5
2F8
330
1F
100
AcDbEntity
  8
0
100
AcDbLine
 10
109.3097625273742
 20
149.6346480448802
 30
0.0
 11
111.0099017583353
 21
151.3347872758413
 31
0.0
  0
LINE
  5
2F9
330
1F
100
AcDbEntity
  8
0
100
AcDbLine
 10
111.2418965034591
 20
151.5667820209652
 30
0.0
 11
112.3123546078397
 21
152.6372401253458
 31
0.0
  0
LINE
  5
2FA
330
1F
100
AcDbEntity
  8
0
100
AcDbLine
 10
112.8790675947759
 20
153.203953112282
 30
0.0
 11
113.4656583953395
 21
153.7905439128455
 31
0.0
  0
LINE
  5
2FB
330
1F
100
AcDbEntity
  8
0
100
AcDbLine
 10
109.3097625273742
 20
149.6721247042831
 30
0.0
 11
111.0099017583353
 21
151.3722639352442
 31
0.0
  0
LINE
  5
2FC
330
1F
100
AcDbEntity
  8
0
100
AcDbLine
 10
111.2044198440563
 20
151.5667820209652
 30
0.0
 11
112.2748779484369
 21
152.6372401253458
 31
0.0
  0
LINE
  5
2FD
330
1F
100
AcDbEntity
  8
0
100
AcDbLine
 10
112.841590935373
 20
153.203953112282
 30
0.0
 11
113.4656583953395
 21
153.8280205722484
 31
0.0
  0
LINE
  5
2FE
330
1F
100
AcDbEntity
  8
0
100
AcDbLine
 10
109.3097625273742
 20
149.709601363686
 30
0.0
 11
111.0099017583353
 21
151.4097405946471
 31
0.0
  0
LINE
  5
2FF
330
1F
100
AcDbEntity
  8
0
100
AcDbLine
 10
111.1669431846534
 20
151.5667820209652
 30
0.0
 11
112.237401289034
 21
152.6372401253458
 31
0.0
  0
LINE
  5
300
330
1F
100
AcDbEntity
  8
0
100
AcDbLine
 10
112.8041142759702
 20
153.203953112282
 30
0.0
 11
113.4656583953395
 21
153.8654972316513
 31
0.0
  0
LINE
  5
301
330
1F
100
AcDbEntity
  8
0
100
AcDbLine
 10
109.3097625273742
 20
149.7470780230889
 30
0.0
 11
111.0099017583353
 21
151.44721725405
 31
0.0
  0
LINE
  5
302
330
1F
100
AcDbEntity
  8
0
100
AcDbLine
 10
111.1294665252505
 20
151.5667820209652
 30
0.0
 11
112.1999246296311
 21
152.6372401253458
 31
0.0
  0
LINE
  5
303
330
1F
100
AcDbEntity
  8
0
100
AcDbLine
 10
112.7666376165673
 20
153.203953112282
 30
0.0
 11
113.4656583953395
 21
153.9029738910542
 31
0.0
  0
LINE
  5
304
330
1F
100
AcDbEntity
  8
0
100
AcDbLine
 10
109.3097625273742
 20
149.7845546824918
 30
0.0
 11
111.0099017583353
 21
151.4846939134529
 31
0.0
  0
LINE
  5
305
330
1F
100
AcDbEntity
  8
0
100
AcDbLine
 10
111.0919898658476
 20
151.5667820209652
 30
0.0
 11
112.1624479702282
 21
152.6372401253458
 31
0.0
  0
LINE
  5
306
330
1F
100
AcDbEntity
  8
0
100
AcDbLine
 10
112.7291609571644
 20
153.203953112282
 30
0.0
 11
113.4656583953395
 21
153.9404505504571
 31
0.0
  0
LINE
  5
307
330
1F
100
AcDbEntity
  8
0
100
AcDbLine
 10
109.3097625273742
 20
149.8220313418947
 30
0.0
 11
111.0099017583353
 21
151.5221705728558
 31
0.0
  0
LINE
  5
308
330
1F
100
AcDbEntity
  8
0
100
AcDbLine
 10
111.0545132064447
 20
151.5667820209652
 30
0.0
 11
112.1249713108253
 21
152.6372401253458
 31
0.0
  0
LINE
  5
309
330
1F
100
AcDbEntity
  8
0
100
AcDbLine
 10
112.6916842977615
 20
153.203953112282
 30
0.0
 11
113.4656583953395
 21
153.97792720986
 31
0.0
  0
LINE
  5
30A
330
1F
100
AcDbEntity
  8
0
100
AcDbLine
 10
109.3097625273742
 20
149.8595080012976
 30
0.0
 11
111.0099017583353
 21
151.5596472322586
 31
0.0
  0
LINE
  5
30B
330
1F
100
AcDbEntity
  8
0
100
AcDbLine
 10
111.0170365470418
 20
151.5667820209652
 30
0.0
 11
112.0874946514225
 21
152.6372401253458
 31
0.0
  0
LINE
  5
30C
330
1F
100
AcDbEntity
  8
0
100
AcDbLine
 10
112.6542076383586
 20
153.203953112282
 30
0.0
 11
113.4656583953395
 21
154.0154038692629
 31
0.0
  0
LINE
  5
30D
330
1F
100
AcDbEntity
  8
0
100
AcDbLine
 10
109.3097625273742
 20
149.8969846607004
 30
0.0
 11
112.0500179920196
 21
152.6372401253458
 31
0.0
  0
LINE
  5
30E
330
1F
100
AcDbEntity
  8
0
100
AcDbLine
 10
112.6167309789557
 20
153.203953112282
 30
0.0
 11
113.4656583953395
 21
154.0528805286658
 31
0.0
  0
LINE
  5
30F
330
1F
100
AcDbEntity
  8
0
100
AcDbLine
 10
109.3097625273742
 20
149.9344613201033
 30
0.0
 11
112.0125413326167
 21
152.6372401253458
 31
0.0
  0
LINE
  5
310
330
1F
100
AcDbEntity
  8
0
100
AcDbLine
 10
112.5792543195529
 20
153.203953112282
 30
0.0
 11
113.4656583953395
 21
154.0903571880686
 31
0.0
  0
LINE
  5
311
330
1F
100
AcDbEntity
  8
0
100
AcDbLine
 10
109.3097625273742
 20
149.9719379795062
 30
0.0
 11
111.9750646732138
 21
152.6372401253458
 31
0.0
  0
LINE
  5
312
330
1F
100
AcDbEntity
  8
0
100
AcDbLine
 10
112.54177766015
 20
153.203953112282
 30
0.0
 11
113.4656583953395
 21
154.1278338474715
 31
0.0
  0
LINE
  5
313
330
1F
100
AcDbEntity
  8
0
100
AcDbLine
 10
109.3097625273742
 20
150.0094146389091
 30
0.0
 11
111.9375880138109
 21
152.6372401253458
 31
0.0
  0
LINE
  5
314
330
1F
100
AcDbEntity
  8
0
100
AcDbLine
 10
112.5043010007471
 20
153.203953112282
 30
0.0
 11
113.4656583953395
 21
154.1653105068744
 31
0.0
  0
LINE
  5
315
330
1F
100
AcDbEntity
  8
0
100
AcDbLine
 10
109.3097625273742
 20
150.046891298312
 30
0.0
 11
111.900111354408
 21
152.6372401253458
 31
0.0
  0
LINE
  5
316
330
1F
100
AcDbEntity
  8
0
100
AcDbLine
 10
112.4668243413442
 20
153.203953112282
 30
0.0
 11
113.4656583953395
 21
154.2027871662773
 31
0.0
  0
LINE
  5
317
330
1F
100
AcDbEntity
  8
0
100
AcDbLine
 10
109.3097625273742
 20
150.0843679577148
 30
0.0
 11
111.8626346950051
 21
152.6372401253458
 31
0.0
  0
LINE
  5
318
330
1F
100
AcDbEntity
  8
0
100
AcDbLine
 10
112.4293476819413
 20
153.203953112282
 30
0.0
 11
113.4656583953395
 21
154.2402638256802
 31
0.0
  0
LINE
  5
319
330
1F
100
AcDbEntity
  8
0
100
AcDbLine
 10
109.3097625273742
 20
150.1218446171177
 30
0.0
 11
111.8251580356023
 21
152.6372401253458
 31
0.0
  0
LINE
  5
31A
330
1F
100
AcDbEntity
  8
0
100
AcDbLine
 10
112.3918710225384
 20
153.203953112282
 30
0.0
 11
113.4656583953395
 21
154.2777404850831
 31
0.0
  0
LINE
  5
31B
330
1F
100
AcDbEntity
  8
0
100
AcDbLine
 10
109.3097625273742
 20
150.1593212765206
 30
0.0
 11
111.7876813761994
 21
152.6372401253458
 31
0.0
  0
LINE
  5
31C
330
1F
100
AcDbEntity
  8
0
100
AcDbLine
 10
112.3543943631356
 20
153.203953112282
 30
0.0
 11
113.4656583953395
 21
154.315217144486
 31
0.0
  0
LINE
  5
31D
330
1F
100
AcDbEntity
  8
0
100
AcDbLine
 10
109.3097625273742
 20
150.1967979359235
 30
0.0
 11
111.7502047167965
 21
152.6372401253458
 31
0.0
  0
LINE
  5
31E
330
1F
100
AcDbEntity
  8
0
100
AcDbLine
 10
112.3169177037327
 20
153.203953112282
 30
0.0
 11
113.4656583953395
 21
154.3526938038888
 31
0.0
  0
LINE
  5
31F
330
1F
100
AcDbEntity
  8
0
100
AcDbLine
 10
109.3097625273742
 20
150.2342745953264
 30
0.0
 11
111.7127280573936
 21
152.6372401253458
 31
0.0
  0
LINE
  5
320
330
1F
100
AcDbEntity
  8
0
100
AcDbLine
 10
112.2794410443298
 20
153.203953112282
 30
0.0
 11
113.4656583953395
 21
154.3901704632917
 31
0.0
  0
LINE
  5
321
330
1F
100
AcDbEntity
  8
0
100
AcDbLine
 10
109.3097625273742
 20
150.2717512547293
 30
0.0
 11
111.6752513979907
 21
152.6372401253458
 31
0.0
  0
LINE
  5
322
330
1F
100
AcDbEntity
  8
0
100
AcDbLine
 10
112.2419643849269
 20
153.203953112282
 30
0.0
 11
113.4656583953395
 21
154.4276471226946
 31
0.0
  0
LINE
  5
323
330
1F
100
AcDbEntity
  8
0
100
AcDbLine
 10
109.3097625273742
 20
150.3092279141322
 30
0.0
 11
111.6377747385878
 21
152.6372401253458
 31
0.0
  0
LINE
  5
324
330
1F
100
AcDbEntity
  8
0
100
AcDbLine
 10
112.204487725524
 20
153.203953112282
 30
0.0
 11
113.463849978801
 21
154.463315365559
 31
0.0
  0
LINE
  5
325
330
1F
100
AcDbEntity
  8
0
100
AcDbLine
 10
109.3097625273742
 20
150.3467045735351
 30
0.0
 11
111.600298079185
 21
152.6372401253458
 31
0.0
  0
LINE
  5
326
330
1F
100
AcDbEntity
  8
0
100
AcDbLine
 10
112.1670110661211
 20
153.203953112282
 30
0.0
 11
113.4263733193982
 21
154.463315365559
 31
0.0
  0
LINE
  5
327
330
1F
100
AcDbEntity
  8
0
100
AcDbLine
 10
109.3097625273742
 20
150.3841812329379
 30
0.0
 11
111.5628214197821
 21
152.6372401253458
 31
0.0
  0
LINE
  5
328
330
1F
100
AcDbEntity
  8
0
100
AcDbLine
 10
112.1295344067182
 20
153.203953112282
 30
0.0
 11
113.3888966599953
 21
154.463315365559
 31
0.0
  0
LINE
  5
329
330
1F
100
AcDbEntity
  8
0
100
AcDbLine
 10
109.3097625273742
 20
150.4216578923408
 30
0.0
 11
111.5253447603792
 21
152.6372401253458
 31
0.0
  0
LINE
  5
32A
330
1F
100
AcDbEntity
  8
0
100
AcDbLine
 10
112.0920577473154
 20
153.203953112282
 30
0.0
 11
113.3514200005924
 21
154.463315365559
 31
0.0
  0
LINE
  5
32B
330
1F
100
AcDbEntity
  8
0
100
AcDbLine
 10
109.3097625273742
 20
150.4591345517437
 30
0.0
 11
111.4878681009763
 21
152.6372401253458
 31
0.0
  0
LINE
  5
32C
330
1F
100
AcDbEntity
  8
0
100
AcDbLine
 10
112.0545810879125
 20
153.203953112282
 30
0.0
 11
113.3139433411895
 21
154.463315365559
 31
0.0
  0
LINE
  5
32D
330
1F
100
AcDbEntity
  8
0
100
AcDbLine
 10
109.3097625273742
 20
150.4966112111466
 30
0.0
 11
111.4503914415734
 21
152.6372401253458
 31
0.0
  0
LINE
  5
32E
330
1F
100
AcDbEntity
  8
0
100
AcDbLine
 10
112.0171044285096
 20
153.203953112282
 30
0.0
 11
113.2764666817866
 21
154.463315365559
 31
0.0
  0
LINE
  5
32F
330
1F
100
AcDbEntity
  8
0
100
AcDbLine
 10
109.3097625273742
 20
150.5340878705495
 30
0.0
 11
111.4129147821705
 21
152.6372401253458
 31
0.0
  0
LINE
  5
330
330
1F
100
AcDbEntity
  8
0
100
AcDbLine
 10
111.9796277691067
 20
153.203953112282
 30
0.0
 11
113.2389900223837
 21
154.463315365559
 31
0.0
  0
LINE
  5
331
330
1F
100
AcDbEntity
  8
0
100
AcDbLine
 10
109.3097625273742
 20
150.5715645299524
 30
0.0
 11
111.3754381227676
 21
152.6372401253458
 31
0.0
  0
LINE
  5
332
330
1F
100
AcDbEntity
  8
0
100
AcDbLine
 10
111.9421511097038
 20
153.203953112282
 30
0.0
 11
113.2015133629808
 21
154.463315365559
 31
0.0
  0
LINE
  5
333
330
1F
100
AcDbEntity
  8
0
100
AcDbLine
 10
109.3097625273742
 20
150.6090411893553
 30
0.0
 11
111.3379614633648
 21
152.6372401253458
 31
0.0
  0
LINE
  5
334
330
1F
100
AcDbEntity
  8
0
100
AcDbLine
 10
111.9046744503009
 20
153.203953112282
 30
0.0
 11
113.164036703578
 21
154.463315365559
 31
0.0
  0
LINE
  5
335
330
1F
100
AcDbEntity
  8
0
100
AcDbLine
 10
109.3097625273742
 20
150.6465178487581
 30
0.0
 11
111.3004848039619
 21
152.6372401253458
 31
0.0
  0
LINE
  5
336
330
1F
100
AcDbEntity
  8
0
100
AcDbLine
 10
111.8671977908981
 20
153.203953112282
 30
0.0
 11
113.1265600441751
 21
154.463315365559
 31
0.0
  0
LINE
  5
337
330
1F
100
AcDbEntity
  8
0
100
AcDbLine
 10
109.3097625273742
 20
150.683994508161
 30
0.0
 11
111.263008144559
 21
152.6372401253458
 31
0.0
  0
LINE
  5
338
330
1F
100
AcDbEntity
  8
0
100
AcDbLine
 10
111.8297211314952
 20
153.203953112282
 30
0.0
 11
113.0890833847722
 21
154.463315365559
 31
0.0
  0
LINE
  5
339
330
1F
100
AcDbEntity
  8
0
100
AcDbLine
 10
109.3097625273742
 20
150.7214711675639
 30
0.0
 11
111.2255314851561
 21
152.6372401253458
 31
0.0
  0
LINE
  5
33A
330
1F
100
AcDbEntity
  8
0
100
AcDbLine
 10
111.7922444720923
 20
153.203953112282
 30
0.0
 11
113.0516067253693
 21
154.463315365559
 31
0.0
  0
LINE
  5
33B
330
1F
100
AcDbEntity
  8
0
100
AcDbLine
 10
109.3097625273742
 20
150.7589478269668
 30
0.0
 11
111.1880548257532
 21
152.6372401253458
 31
0.0
  0
LINE
  5
33C
330
1F
100
AcDbEntity
  8
0
100
AcDbLine
 10
111.7547678126894
 20
153.203953112282
 30
0.0
 11
113.0141300659664
 21
154.463315365559
 31
0.0
  0
LINE
  5
33D
330
1F
100
AcDbEntity
  8
0
100
AcDbLine
 10
109.3097625273742
 20
150.7964244863697
 30
0.0
 11
111.1505781663503
 21
152.6372401253458
 31
0.0
  0
LINE
  5
33E
330
1F
100
AcDbEntity
  8
0
100
AcDbLine
 10
111.7172911532865
 20
153.203953112282
 30
0.0
 11
112.9766534065635
 21
154.463315365559
 31
0.0
  0
LINE
  5
33F
330
1F
100
AcDbEntity
  8
0
100
AcDbLine
 10
109.3097625273742
 20
150.8339011457726
 30
0.0
 11
111.1131015069475
 21
152.6372401253458
 31
0.0
  0
LINE
  5
340
330
1F
100
AcDbEntity
  8
0
100
AcDbLine
 10
111.6798144938837
 20
153.203953112282
 30
0.0
 11
112.9391767471606
 21
154.463315365559
 31
0.0
  0
LINE
  5
341
330
1F
100
AcDbEntity
  8
0
100
AcDbLine
 10
109.3097625273742
 20
150.8713778051754
 30
0.0
 11
111.0756248475446
 21
152.6372401253458
 31
0.0
  0
LINE
  5
342
330
1F
100
AcDbEntity
  8
0
100
AcDbLine
 10
111.6423378344808
 20
153.203953112282
 30
0.0
 11
112.9017000877578
 21
154.463315365559
 31
0.0
  0
LINE
  5
343
330
1F
100
AcDbEntity
  8
0
100
AcDbLine
 10
109.3097625273742
 20
150.9088544645783
 30
0.0
 11
111.0381481881417
 21
152.6372401253458
 31
0.0
  0
LINE
  5
344
330
1F
100
AcDbEntity
  8
0
100
AcDbLine
 10
111.6048611750779
 20
153.203953112282
 30
0.0
 11
112.8642234283549
 21
154.463315365559
 31
0.0
  0
LINE
  5
345
330
1F
100
AcDbEntity
  8
0
100
AcDbLine
 10
109.3097625273742
 20
150.9463311239812
 30
0.0
 11
111.0099017583353
 21
152.6464703549423
 31
0.0
  0
LINE
  5
346
330
1F
100
AcDbEntity
  8
0
100
AcDbLine
 10
111.567384515675
 20
153.203953112282
 30
0.0
 11
112.826746768952
 21
154.463315365559
 31
0.0
  0
LINE
  5
347
330
1F
100
AcDbEntity
  8
0
100
AcDbLine
 10
109.3097625273742
 20
150.9838077833841
 30
0.0
 11
111.0099017583353
 21
152.6839470143452
 31
0.0
  0
LINE
  5
348
330
1F
100
AcDbEntity
  8
0
100
AcDbLine
 10
111.5299078562721
 20
153.203953112282
 30
0.0
 11
112.7892701095491
 21
154.463315365559
 31
0.0
  0
LINE
  5
349
330
1F
100
AcDbEntity
  8
0
100
AcDbLine
 10
109.3097625273742
 20
151.021284442787
 30
0.0
 11
111.0099017583353
 21
152.7214236737481
 31
0.0
  0
LINE
  5
34A
330
1F
100
AcDbEntity
  8
0
100
AcDbLine
 10
111.4924311968692
 20
153.203953112282
 30
0.0
 11
112.7517934501462
 21
154.463315365559
 31
0.0
  0
LINE
  5
34B
330
1F
100
AcDbEntity
  8
0
100
AcDbLine
 10
109.3097625273742
 20
151.0587611021899
 30
0.0
 11
111.0099017583353
 21
152.758900333151
 31
0.0
  0
LINE
  5
34C
330
1F
100
AcDbEntity
  8
0
100
AcDbLine
 10
111.4549545374663
 20
153.203953112282
 30
0.0
 11
112.7143167907433
 21
154.463315365559
 31
0.0
  0
LINE
  5
34D
330
1F
100
AcDbEntity
  8
0
100
AcDbLine
 10
109.3097625273742
 20
151.0962377615927
 30
0.0
 11
111.0099017583353
 21
152.7963769925538
 31
0.0
  0
LINE
  5
34E
330
1F
100
AcDbEntity
  8
0
100
AcDbLine
 10
111.4174778780634
 20
153.203953112282
 30
0.0
 11
112.6768401313405
 21
154.463315365559
 31
0.0
  0
LINE
  5
34F
330
1F
100
AcDbEntity
  8
0
100
AcDbLine
 10
109.3097625273742
 20
151.1337144209956
 30
0.0
 11
111.0099017583353
 21
152.8338536519567
 31
0.0
  0
LINE
  5
350
330
1F
100
AcDbEntity
  8
0
100
AcDbLine
 10
111.3800012186606
 20
153.203953112282
 30
0.0
 11
112.6393634719376
 21
154.463315365559
 31
0.0
  0
LINE
  5
351
330
1F
100
AcDbEntity
  8
0
100
AcDbLine
 10
109.3097625273742
 20
151.1711910803985
 30
0.0
 11
111.0099017583353
 21
152.8713303113596
 31
0.0
  0
LINE
  5
352
330
1F
100
AcDbEntity
  8
0
100
AcDbLine
 10
111.3425245592577
 20
153.203953112282
 30
0.0
 11
112.6018868125347
 21
154.463315365559
 31
0.0
  0
LINE
  5
353
330
1F
100
AcDbEntity
  8
0
100
AcDbLine
 10
109.3097625273742
 20
151.2086677398014
 30
0.0
 11
111.0099017583353
 21
152.9088069707625
 31
0.0
  0
LINE
  5
354
330
1F
100
AcDbEntity
  8
0
100
AcDbLine
 10
111.3050478998548
 20
153.203953112282
 30
0.0
 11
112.5644101531318
 21
154.463315365559
 31
0.0
  0
LINE
  5
355
330
1F
100
AcDbEntity
  8
0
100
AcDbLine
 10
108.0198936673569
 20
149.956275539187
 30
0.0
 11
108.2717557122179
 21
150.2081375840479
 31
0.0
  0
LINE
  5
356
330
1F
100
AcDbEntity
  8
0
100
AcDbLine
 10
109.3097625273742
 20
151.2461443992043
 30
0.0
 11
111.0099017583353
 21
152.9462836301654
 31
0.0
  0
LINE
  5
357
330
1F
100
AcDbEntity
  8
0
100
AcDbLine
 10
111.2675712404519
 20
153.203953112282
 30
0.0
 11
112.5269334937289
 21
154.463315365559
 31
0.0
  0
LINE
  5
358
330
1F
100
AcDbEntity
  8
0
100
AcDbLine
 10
107.8816766326435
 20
149.8555351638765
 30
0.0
 11
108.3654924836865
 21
150.3393510149194
 31
0.0
  0
LINE
  5
359
330
1F
100
AcDbEntity
  8
0
100
AcDbLine
 10
109.3097625273742
 20
151.2836210586072
 30
0.0
 11
111.0099017583353
 21
152.9837602895683
 31
0.0
  0
LINE
  5
35A
330
1F
100
AcDbEntity
  8
0
100
AcDbLine
 10
111.230094581049
 20
153.203953112282
 30
0.0
 11
112.489456834326
 21
154.463315365559
 31
0.0
  0
LINE
  5
35B
330
1F
100
AcDbEntity
  8
0
100
AcDbLine
 10
107.7874096250557
 20
149.7987448156915
 30
0.0
 11
108.4209694967896
 21
150.4323046874255
 31
0.0
  0
LINE
  5
35C
330
1F
100
AcDbEntity
  8
0
100
AcDbLine
 10
109.3097625273742
 20
151.32109771801
 30
0.0
 11
111.0099017583353
 21
153.0212369489711
 31
0.0
  0
LINE
  5
35D
330
1F
100
AcDbEntity
  8
0
100
AcDbLine
 10
111.1926179216461
 20
153.203953112282
 30
0.0
 11
112.4519801749232
 21
154.463315365559
 31
0.0
  0
LINE
  5
35E
330
1F
100
AcDbEntity
  8
0
100
AcDbLine
 10
107.7062376366844
 20
149.7550494867232
 30
0.0
 11
108.4622765745299
 21
150.5110884245686
 31
0.0
  0
LINE
  5
35F
330
1F
100
AcDbEntity
  8
0
100
AcDbLine
 10
109.3097625273742
 20
151.3585743774129
 30
0.0
 11
111.0099017583353
 21
153.058713608374
 31
0.0
  0
LINE
  5
360
330
1F
100
AcDbEntity
  8
0
100
AcDbLine
 10
111.1551412622432
 20
153.203953112282
 30
0.0
 11
112.4145035155203
 21
154.463315365559
 31
0.0
  0
LINE
  5
361
330
1F
100
AcDbEntity
  8
0
100
AcDbLine
 10
107.6340537685477
 20
149.7203422779893
 30
0.0
 11
108.4942095204369
 21
150.5804980298785
 31
0.0
  0
LINE
  5
362
330
1F
100
AcDbEntity
  8
0
100
AcDbLine
 10
109.3097625273742
 20
151.3960510368158
 30
0.0
 11
111.0099017583353
 21
153.0961902677769
 31
0.0
  0
LINE
  5
363
330
1F
100
AcDbEntity
  8
0
100
AcDbLine
 10
111.1176646028404
 20
153.203953112282
 30
0.0
 11
112.3770268561174
 21
154.463315365559
 31
0.0
  0
LINE
  5
364
330
1F
100
AcDbEntity
  8
0
100
AcDbLine
 10
107.5675894861989
 20
149.6913546550434
 30
0.0
 11
108.5195889741817
 21
150.6433541430262
 31
0.0
  0
LINE
  5
365
330
1F
100
AcDbEntity
  8
0
100
AcDbLine
 10
109.3097625273742
 20
151.4335276962187
 30
0.0
 11
111.0099017583353
 21
153.1336669271798
 31
0.0
  0
LINE
  5
366
330
1F
100
AcDbEntity
  8
0
100
AcDbLine
 10
111.0801879434375
 20
153.203953112282
 30
0.0
 11
112.3395501967145
 21
154.463315365559
 31
0.0
  0
LINE
  5
367
330
1F
100
AcDbEntity
  8
0
100
AcDbLine
 10
107.5053731744358
 20
149.6666150026832
 30
0.0
 11
108.5403361270926
 21
150.7015779553399
 31
0.0
  0
LINE
  5
368
330
1F
100
AcDbEntity
  8
0
100
AcDbLine
 10
109.3097625273742
 20
151.4710043556216
 30
0.0
 11
111.0099017583353
 21
153.1711435865827
 31
0.0
  0
LINE
  5
369
330
1F
100
AcDbEntity
  8
0
100
AcDbLine
 10
111.0427112840346
 20
153.203953112282
 30
0.0
 11
112.3020735373116
 21
154.463315365559
 31
0.0
  0
LINE
  5
36A
330
1F
100
AcDbEntity
  8
0
100
AcDbLine
 10
107.4466657601807
 20
149.6453842478309
 30
0.0
 11
108.5572638095251
 21
150.7559822971754
 31
0.0
  0
LINE
  5
36B
330
1F
100
AcDbEntity
  8
0
100
AcDbLine
 10
109.3097625273742
 20
151.5084810150244
 30
0.0
 11
112.2645968779087
 21
154.463315365559
 31
0.0
  0
LINE
  5
36C
330
1F
100
AcDbEntity
  8
0
100
AcDbLine
 10
107.3906607017294
 20
149.6268558487826
 30
0.0
 11
108.5710694028511
 21
150.8072645499042
 31
0.0
  0
LINE
  5
36D
330
1F
100
AcDbEntity
  8
0
100
AcDbLine
 10
109.3097625273742
 20
151.5459576744273
 30
0.0
 11
112.2271202185058
 21
154.463315365559
 31
0.0
  0
LINE
  5
36E
330
1F
100
AcDbEntity
  8
0
100
AcDbLine
 10
107.336633607342
 20
149.610305413798
 30
0.0
 11
108.5823705462754
 21
150.8560423527315
 31
0.0
  0
LINE
  5
36F
330
1F
100
AcDbEntity
  8
0
100
AcDbLine
 10
109.3097625273742
 20
151.5834343338302
 30
0.0
 11
112.189643559103
 21
154.463315365559
 31
0.0
  0
LINE
  5
370
330
1F
100
AcDbEntity
  8
0
100
AcDbLine
 10
107.2843356021884
 20
149.5954840680474
 30
0.0
 11
108.5916768227814
 21
150.9028252886403
 31
0.0
  0
LINE
  5
371
330
1F
100
AcDbEntity
  8
0
100
AcDbLine
 10
109.3097625273742
 20
151.6209109932331
 30
0.0
 11
112.1521668997001
 21
154.463315365559
 31
0.0
  0
LINE
  5
372
330
1F
100
AcDbEntity
  8
0
100
AcDbLine
 10
107.2334885987885
 20
149.5821137240503
 30
0.0
 11
108.5992840293952
 21
150.947909154657
 31
0.0
  0
LINE
  5
373
330
1F
100
AcDbEntity
  8
0
100
AcDbLine
 10
109.3097625273742
 20
151.658387652636
 30
0.0
 11
112.1146902402972
 21
154.463315365559
 31
0.0
  0
LINE
  5
374
330
1F
100
AcDbEntity
  8
0
100
AcDbLine
 10
107.1843618995159
 20
149.5704636841806
 30
0.0
 11
108.605543225641
 21
150.9916450103056
 31
0.0
  0
LINE
  5
375
330
1F
100
AcDbEntity
  8
0
100
AcDbLine
 10
109.3097625273742
 20
151.6958643120389
 30
0.0
 11
112.0772135808943
 21
154.463315365559
 31
0.0
  0
LINE
  5
376
330
1F
100
AcDbEntity
  8
0
100
AcDbLine
 10
107.1367281138411
 20
149.5603065579086
 30
0.0
 11
108.6103553497086
 21
151.0339337937761
 31
0.0
  0
LINE
  5
377
330
1F
100
AcDbEntity
  8
0
100
AcDbLine
 10
109.3097625273742
 20
151.7333409714418
 30
0.0
 11
112.0397369214914
 21
154.463315365559
 31
0.0
  0
LINE
  5
378
330
1F
100
AcDbEntity
  8
0
100
AcDbLine
 10
107.0902096265494
 20
149.5512647300199
 30
0.0
 11
108.6136374178013
 21
151.0746925212717
 31
0.0
  0
LINE
  5
379
330
1F
100
AcDbEntity
  8
0
100
AcDbLine
 10
109.3097625273742
 20
151.7708176308447
 30
0.0
 11
112.0022602620885
 21
154.463315365559
 31
0.0
  0
LINE
  5
37A
330
1F
100
AcDbEntity
  8
0
100
AcDbLine
 10
107.0445279883801
 20
149.5430597512535
 30
0.0
 11
108.615557481909
 21
151.1140892447824
 31
0.0
  0
LINE
  5
37B
330
1F
100
AcDbEntity
  8
0
100
AcDbLine
 10
109.3097625273742
 20
151.8082942902475
 30
0.0
 11
111.9647836026857
 21
154.463315365559
 31
0.0
  0
LINE
  5
37C
330
1F
100
AcDbEntity
  8
0
100
AcDbLine
 10
106.9995545327097
 20
149.5355629549859
 30
0.0
 11
108.6165815436462
 21
151.1525899659225
 31
0.0
  0
LINE
  5
37D
330
1F
100
AcDbEntity
  8
0
100
AcDbLine
 10
109.3097625273742
 20
151.8457709496504
 30
0.0
 11
111.9273069432828
 21
154.463315365559
 31
0.0
  0
LINE
  5
37E
330
1F
100
AcDbEntity
  8
0
100
AcDbLine
 10
106.9552228107704
 20
149.5287078924495
 30
0.0
 11
108.616752311702
 21
151.1902373933811
 31
0.0
  0
LINE
  5
37F
330
1F
100
AcDbEntity
  8
0
100
AcDbLine
 10
109.3097625273742
 20
151.8832476090533
 30
0.0
 11
111.8898302838799
 21
154.463315365559
 31
0.0
  0
LINE
  5
380
330
1F
100
AcDbEntity
  8
0
100
AcDbLine
 10
106.9115780857464
 20
149.5225398268284
 30
0.0
 11
108.615267712538
 21
151.22622945362
 31
0.0
  0
LINE
  5
381
330
1F
100
AcDbEntity
  8
0
100
AcDbLine
 10
109.3097625273742
 20
151.9207242684562
 30
0.0
 11
111.852353624477
 21
154.463315365559
 31
0.0
  0
LINE
  5
382
330
1F
100
AcDbEntity
  8
0
100
AcDbLine
 10
106.868658534793
 20
149.5170969352778
 30
0.0
 11
108.6135266452491
 21
151.2619650457339
 31
0.0
  0
LINE
  5
383
330
1F
100
AcDbEntity
  8
0
100
AcDbLine
 10
109.3097625273742
 20
151.9582009278591
 30
0.0
 11
111.8148769650741
 21
154.463315365559
 31
0.0
  0
LINE
  5
384
330
1F
100
AcDbEntity
  8
0
100
AcDbLine
 10
106.8264096625961
 20
149.5123247224839
 30
0.0
 11
108.6113431584717
 21
151.2972582183594
 31
0.0
  0
LINE
  5
385
330
1F
100
AcDbEntity
  8
0
100
AcDbLine
 10
109.3097625273742
 20
151.995677587262
 30
0.0
 11
111.7774003056713
 21
154.463315365559
 31
0.0
  0
LINE
  5
386
330
1F
100
AcDbEntity
  8
0
100
AcDbLine
 10
106.7847279178343
 20
149.5081196371249
 30
0.0
 11
108.6085488015706
 21
151.3319405208612
 31
0.0
  0
LINE
  5
387
330
1F
100
AcDbEntity
  8
0
100
AcDbLine
 10
109.3097625273742
 20
152.0331542466648
 30
0.0
 11
111.7399236462684
 21
154.463315365559
 31
0.0
  0
LINE
  5
388
330
1F
100
AcDbEntity
  8
0
100
AcDbLine
 10
106.7435014628528
 20
149.5043698415464
 30
0.0
 11
108.6049980328252
 21
151.3658664115187
 31
0.0
  0
LINE
  5
389
330
1F
100
AcDbEntity
  8
0
100
AcDbLine
 10
109.3097625273742
 20
152.0706309060677
 30
0.0
 11
111.7024469868655
 21
154.463315365559
 31
0.0
  0
LINE
  5
38A
330
1F
100
AcDbEntity
  8
0
100
AcDbLine
 10
106.7026169302238
 20
149.5009619683202
 30
0.0
 11
108.6006012857488
 21
151.3989463238452
 31
0.0
  0
LINE
  5
38B
330
1F
100
AcDbEntity
  8
0
100
AcDbLine
 10
109.3097625273742
 20
152.1081075654706
 30
0.0
 11
111.6649703274626
 21
154.463315365559
 31
0.0
  0
LINE
  5
38C
330
1F
100
AcDbEntity
  8
0
100
AcDbLine
 10
106.6621021144413
 20
149.4979238119406
 30
0.0
 11
108.5953798516836
 21
151.4312015491829
 31
0.0
  0
LINE
  5
38D
330
1F
100
AcDbEntity
  8
0
100
AcDbLine
 10
109.3097625273742
 20
152.1455842248735
 30
0.0
 11
111.6274936680597
 21
154.463315365559
 31
0.0
  0
LINE
  5
38E
330
1F
100
AcDbEntity
  8
0
100
AcDbLine
 10
106.6220209688633
 20
149.4953193257655
 30
0.0
 11
108.5894087191857
 21
151.4627070760879
 31
0.0
  0
LINE
  5
38F
330
1F
100
AcDbEntity
  8
0
100
AcDbLine
 10
109.3097625273742
 20
152.1830608842764
 30
0.0
 11
111.5900170086568
 21
154.463315365559
 31
0.0
  0
LINE
  5
390
330
1F
100
AcDbEntity
  8
0
100
AcDbLine
 10
106.5823728020674
 20
149.4931478183724
 30
0.0
 11
108.5827555680321
 21
151.4935305843372
 31
0.0
  0
LINE
  5
391
330
1F
100
AcDbEntity
  8
0
100
AcDbLine
 10
109.3097625273742
 20
152.2205375436793
 30
0.0
 11
111.5525403492539
 21
154.463315365559
 31
0.0
  0
LINE
  5
392
330
1F
100
AcDbEntity
  8
0
100
AcDbLine
 10
106.543283234894
 20
149.491534910602
 30
0.0
 11
108.575478811852
 21
151.5237304875599
 31
0.0
  0
LINE
  5
393
330
1F
100
AcDbEntity
  8
0
100
AcDbLine
 10
109.3097625273742
 20
152.2580142030822
 30
0.0
 11
111.515063689851
 21
154.463315365559
 31
0.0
  0
LINE
  5
394
330
1F
100
AcDbEntity
  8
0
100
AcDbLine
 10
106.504691899065
 20
149.4904202341759
 30
0.0
 11
108.567629135329
 21
151.5533574704398
 31
0.0
  0
LINE
  5
395
330
1F
100
AcDbEntity
  8
0
100
AcDbLine
 10
109.3097625273742
 20
152.295490862485
 30
0.0
 11
111.4775870304482
 21
154.463315365559
 31
0.0
  0
LINE
  5
396
330
1F
100
AcDbEntity
  8
0
100
AcDbLine
 10
106.4664804851671
 20
149.4896854796808
 30
0.0
 11
108.5591989593019
 21
151.5824039538156
 31
0.0
  0
LINE
  5
397
330
1F
100
AcDbEntity
  8
0
100
AcDbLine
 10
109.3097625273742
 20
152.3329675218879
 30
0.0
 11
111.4401103710453
 21
154.463315365559
 31
0.0
  0
LINE
  5
398
330
1F
100
AcDbEntity
  8
0
100
AcDbLine
 10
106.4285514214833
 20
149.4892330753999
 30
0.0
 11
108.5502879662504
 21
151.610969620167
 31
0.0
  0
LINE
  5
399
330
1F
100
AcDbEntity
  8
0
100
AcDbLine
 10
109.3097625273742
 20
152.3704441812908
 30
0.0
 11
111.4026337116424
 21
154.463315365559
 31
0.0
  0
LINE
  5
39A
330
1F
100
AcDbEntity
  8
0
100
AcDbLine
 10
106.3907965374791
 20
149.4889548507986
 30
0.0
 11
108.5409063544958
 21
151.6390646678153
 31
0.0
  0
LINE
  5
39B
330
1F
100
AcDbEntity
  8
0
100
AcDbLine
 10
109.3097625273742
 20
152.4079208406937
 30
0.0
 11
111.3651570522395
 21
154.463315365559
 31
0.0
  0
LINE
  5
39C
330
1F
100
AcDbEntity
  8
0
100
AcDbLine
 10
106.3534662240723
 20
149.4891011967947
 30
0.0
 11
108.5310676062396
 21
151.666702578962
 31
0.0
  0
LINE
  5
39D
330
1F
100
AcDbEntity
  8
0
100
AcDbLine
 10
109.3097625273742
 20
152.4453975000966
 30
0.0
 11
111.3276803928366
 21
154.463315365559
 31
0.0
  0
LINE
  5
39E
330
1F
100
AcDbEntity
  8
0
100
AcDbLine
 10
106.3165623473398
 20
149.489673979465
 30
0.0
 11
108.5206990085051
 21
151.6938106406304
 31
0.0
  0
LINE
  5
39F
330
1F
100
AcDbEntity
  8
0
100
AcDbLine
 10
109.3097625273742
 20
152.4828741594995
 30
0.0
 11
111.2902037334338
 21
154.463315365559
 31
0.0
  0
LINE
  5
3A0
330
1F
100
AcDbEntity
  8
0
100
AcDbLine
 10
106.2797184509564
 20
149.4903067424845
 30
0.0
 11
108.5097982023885
 21
151.7203864939166
 31
0.0
  0
LINE
  5
3A1
330
1F
100
AcDbEntity
  8
0
100
AcDbLine
 10
109.3097625273742
 20
152.5203508189024
 30
0.0
 11
111.2527270740309
 21
154.463315365559
 31
0.0
  0
LINE
  5
3A2
330
1F
100
AcDbEntity
  8
0
100
AcDbLine
 10
106.242977239936
 20
149.491042190867
 30
0.0
 11
108.4984669985263
 21
151.7465319494573
 31
0.0
  0
LINE
  5
3A3
330
1F
100
AcDbEntity
  8
0
100
AcDbLine
 10
109.3097625273742
 20
152.5578274783052
 30
0.0
 11
111.215250414628
 21
154.463315365559
 31
0.0
  0
LINE
  5
3A4
330
1F
100
AcDbEntity
  8
0
100
AcDbLine
 10
106.2063483057095
 20
149.4918899160434
 30
0.0
 11
108.4867285008445
 21
151.7722701111784
 31
0.0
  0
LINE
  5
3A5
330
1F
100
AcDbEntity
  8
0
100
AcDbLine
 10
109.3097625273742
 20
152.5953041377081
 30
0.0
 11
111.1777737552251
 21
154.463315365559
 31
0.0
  0
LINE
  5
3A6
330
1F
100
AcDbEntity
  8
0
100
AcDbLine
 10
106.1698477380745
 20
149.4928660078113
 30
0.0
 11
108.4745112540158
 21
151.7975295237526
 31
0.0
  0
LINE
  5
3A7
330
1F
100
AcDbEntity
  8
0
100
AcDbLine
 10
109.3097625273742
 20
152.632780797111
 30
0.0
 11
111.1402970958222
 21
154.463315365559
 31
0.0
  0
LINE
  5
3A8
330
1F
100
AcDbEntity
  8
0
100
AcDbLine
 10
106.1336048145687
 20
149.4940997437083
 30
0.0
 11
108.4617688134053
 21
151.8222637425449
 31
0.0
  0
LINE
  5
3A9
330
1F
100
AcDbEntity
  8
0
100
AcDbLine
 10
109.3097625273742
 20
152.6702574565139
 30
0.0
 11
111.1028204364193
 21
154.463315365559
 31
0.0
  0
LINE
  5
3AA
330
1F
100
AcDbEntity
  8
0
100
AcDbLine
 10
106.0975727757813
 20
149.4955443643239
 30
0.0
 11
108.4486452839276
 21
151.8466168724702
 31
0.0
  0
LINE
  5
3AB
330
1F
100
AcDbEntity
  8
0
100
AcDbLine
 10
109.3097625273742
 20
152.7077341159168
 30
0.0
 11
111.0653437770164
 21
154.463315365559
 31
0.0
  0
LINE
  5
3AC
330
1F
100
AcDbEntity
  8
0
100
AcDbLine
 10
106.061747847145
 20
149.4971960950905
 30
0.0
 11
108.4351490351233
 21
151.8705972830687
 31
0.0
  0
LINE
  5
3AD
330
1F
100
AcDbEntity
  8
0
100
AcDbLine
 10
109.3097625273742
 20
152.7452107753196
 30
0.0
 11
111.0278671176136
 21
154.463315365559
 31
0.0
  0
LINE
  5
3AE
330
1F
100
AcDbEntity
  8
0
100
AcDbLine
 10
106.0261912884083
 20
149.4991161957566
 30
0.0
 11
108.4211291804916
 21
151.8940540878399
 31
0.0
  0
LINE
  5
3AF
330
1F
100
AcDbEntity
  8
0
100
AcDbLine
 10
109.3097625273742
 20
152.7826874347225
 30
0.0
 11
110.9903904582107
 21
154.463315365559
 31
0.0
  0
LINE
  5
3B0
330
1F
100
AcDbEntity
  8
0
100
AcDbLine
 10
105.9909749235727
 20
149.5013764903239
 30
0.0
 11
108.4067758170017
 21
151.9171773837529
 31
0.0
  0
LINE
  5
3B1
330
1F
100
AcDbEntity
  8
0
100
AcDbLine
 10
109.3097625273742
 20
152.8201640941254
 30
0.0
 11
110.9529137988078
 21
154.463315365559
 31
0.0
  0
LINE
  5
3B2
330
1F
100
AcDbEntity
  8
0
100
AcDbLine
 10
105.9560036672539
 20
149.5038818934079
 30
0.0
 11
108.391925722507
 21
151.9398039486611
 31
0.0
  0
LINE
  5
3B3
330
1F
100
AcDbEntity
  8
0
100
AcDbLine
 10
109.3097625273742
 20
152.8576407535283
 30
0.0
 11
110.9154371394049
 21
154.463315365559
 31
0.0
  0
LINE
  5
3B4
330
1F
100
AcDbEntity
  8
0
100
AcDbLine
 10
105.9212733688878
 20
149.5066282544448
 30
0.0
 11
108.3767113874831
 21
151.9620662730401
 31
0.0
  0
LINE
  5
3B5
330
1F
100
AcDbEntity
  8
0
100
AcDbLine
 10
109.3097625273742
 20
152.8951174129312
 30
0.0
 11
110.877960480002
 21
154.463315365559
 31
0.0
  0
LINE
  5
3B6
330
1F
100
AcDbEntity
  8
0
100
AcDbLine
 10
105.8867912081137
 20
149.5096227530736
 30
0.0
 11
108.3611082096042
 21
151.983939754564
 31
0.0
  0
LINE
  5
3B7
330
1F
100
AcDbEntity
  8
0
100
AcDbLine
 10
109.3097625273742
 20
152.9325940723341
 30
0.0
 11
110.8404838205991
 21
154.463315365559
 31
0.0
  0
LINE
  5
3B8
330
1F
100
AcDbEntity
  8
0
100
AcDbLine
 10
105.8526576835134
 20
149.5129658878761
 30
0.0
 11
108.3451184161679
 21
152.0054266205306
 31
0.0
  0
LINE
  5
3B9
330
1F
100
AcDbEntity
  8
0
100
AcDbLine
 10
109.3097625273742
 20
152.9700707317369
 30
0.0
 11
110.8030071611963
 21
154.463315365559
 31
0.0
  0
LINE
  5
3BA
330
1F
100
AcDbEntity
  8
0
100
AcDbLine
 10
105.8187574144214
 20
149.516542278187
 30
0.0
 11
108.3287584296475
 21
152.0265432934131
 31
0.0
  0
LINE
  5
3BB
330
1F
100
AcDbEntity
  8
0
100
AcDbLine
 10
109.3097625273742
 20
153.0075473911398
 30
0.0
 11
110.7655305017934
 21
154.463315365559
 31
0.0
  0
LINE
  5
3BC
330
1F
100
AcDbEntity
  8
0
100
AcDbLine
 10
105.7850909522863
 20
149.5203524754548
 30
0.0
 11
108.3119459786037
 21
152.0472075017722
 31
0.0
  0
LINE
  5
3BD
330
1F
100
AcDbEntity
  8
0
100
AcDbLine
 10
109.3097625273742
 20
153.0450240505427
 30
0.0
 11
110.7280538423905
 21
154.463315365559
 31
0.0
  0
LINE
  5
3BE
330
1F
100
AcDbEntity
  8
0
100
AcDbLine
 10
105.7517112308973
 20
149.5244494134687
 30
0.0
 11
108.2946659170507
 21
152.0674040996221
 31
0.0
  0
LINE
  5
3BF
330
1F
100
AcDbEntity
  8
0
100
AcDbLine
 10
109.3097625273742
 20
153.0825007099456
 30
0.0
 11
110.6905771829876
 21
154.463315365559
 31
0.0
  0
LINE
  5
3C0
330
1F
100
AcDbEntity
  8
0
100
AcDbLine
 10
105.7186279683471
 20
149.5288428103214
 30
0.0
 11
108.2769655300312
 21
152.0871803720055
 31
0.0
  0
LINE
  5
3C1
330
1F
100
AcDbEntity
  8
0
100
AcDbLine
 10
109.3097625273742
 20
153.1199773693485
 30
0.0
 11
110.6531005235847
 21
154.463315365559
 31
0.0
  0
LINE
  5
3C2
330
1F
100
AcDbEntity
  8
0
100
AcDbLine
 10
105.6857349215126
 20
149.5334264228897
 30
0.0
 11
108.2588465144692
 21
152.1065380158464
 31
0.0
  0
LINE
  5
3C3
330
1F
100
AcDbEntity
  8
0
100
AcDbLine
 10
109.3097625273742
 20
153.1574540287514
 30
0.0
 11
110.6156238641818
 21
154.463315365559
 31
0.0
  0
LINE
  5
3C4
330
1F
100
AcDbEntity
  8
0
100
AcDbLine
 10
105.6531791029522
 20
149.5383472637322
 30
0.0
 11
106.7420117803105
 21
150.6271799410906
 31
0.0
  0
LINE
  5
3C5
330
1F
100
AcDbEntity
  8
0
100
AcDbLine
 10
106.9451730072507
 20
150.8303411680307
 30
0.0
 11
108.2403411074749
 21
152.1255092682549
 31
0.0
  0
LINE
  5
3C6
330
1F
100
AcDbEntity
  8
0
100
AcDbLine
 10
109.3097625273742
 20
153.1949306881542
 30
0.0
 11
110.578147204779
 21
154.463315365559
 31
0.0
  0
LINE
  5
3C7
330
1F
100
AcDbEntity
  8
0
100
AcDbLine
 10
105.6208930700346
 20
149.5435378902176
 30
0.0
 11
106.6769076531265
 21
150.5995524733094
 31
0.0
  0
LINE
  5
3C8
330
1F
100
AcDbEntity
  8
0
100
AcDbLine
 10
106.9679027000084
 20
150.8905475201913
 30
0.0
 11
108.2214746704109
 21
152.1441194905939
 31
0.0
  0
LINE
  5
3C9
330
1F
100
AcDbEntity
  8
0
100
AcDbLine
 10
109.3097625273742
 20
153.2324073475571
 30
0.0
 11
110.5406705453761
 21
154.463315365559
 31
0.0
  0
LINE
  5
3CA
330
1F
100
AcDbEntity
  8
0
100
AcDbLine
 10
105.5887896782793
 20
149.5489111578651
 30
0.0
 11
106.6232860303218
 21
150.5834075099077
 31
0.0
  0
LINE
  5
3CB
330
1F
100
AcDbEntity
  8
0
100
AcDbLine
 10
106.9762256834999
 20
150.9363471630857
 30
0.0
 11
108.2022681928224
 21
152.1623896724082
 31
0.0
  0
LINE
  5
3CC
330
1F
100
AcDbEntity
  8
0
100
AcDbLine
 10
109.3097625273742
 20
153.26988400696
 30
0.0
 11
110.5031938859732
 21
154.463315365559
 31
0.0
  0
LINE
  5
3CD
330
1F
100
AcDbEntity
  8
0
100
AcDbLine
 10
105.5570897162818
 20
149.5546878552705
 30
0.0
 11
106.5753404734689
 21
150.5729386124576
 31
0.0
  0
LINE
  5
3CE
330
1F
100
AcDbEntity
  8
0
100
AcDbLine
 10
106.9794945641621
 20
150.9770927031508
 30
0.0
 11
108.1827258290597
 21
152.1803239680484
 31
0.0
  0
LINE
  5
3CF
330
1F
100
AcDbEntity
  8
0
100
AcDbLine
 10
109.3097625273742
 20
153.3073606663629
 30
0.0
 11
110.4657172265703
 21
154.463315365559
 31
0.0
  0
LINE
  5
3D0
330
1F
100
AcDbEntity
  8
0
100
AcDbLine
 10
105.5255912639456
 20
149.5606660623372
 30
0.0
 11
106.5313635597318
 21
150.5664383581234
 31
0.0
  0
LINE
  5
3D1
330
1F
100
AcDbEntity
  8
0
100
AcDbLine
 10
106.9777115651787
 20
151.0127863635703
 30
0.0
 11
108.1628520924534
 21
152.1979268908449
 31
0.0
  0
LINE
  5
3D2
330
1F
100
AcDbEntity
  8
0
100
AcDbLine
 10
109.3097625273742
 20
153.3448373257658
 30
0.0
 11
110.4282405671674
 21
154.463315365559
 31
0.0
  0
LINE
  5
3D3
330
1F
100
AcDbEntity
  8
0
100
AcDbLine
 10
105.4943162440683
 20
149.5668677018627
 30
0.0
 11
106.4901865528815
 21
150.562738010676
 31
0.0
  0
LINE
  5
3D4
330
1F
100
AcDbEntity
  8
0
100
AcDbLine
 10
106.9737349184458
 20
151.0462863762403
 30
0.0
 11
108.1426469639579
 21
152.2151984217524
 31
0.0
  0
LINE
  5
3D5
330
1F
100
AcDbEntity
  8
0
100
AcDbLine
 10
109.3097625273742
 20
153.3823139851687
 30
0.0
 11
110.3907639077645
 21
154.463315365559
 31
0.0
  0
LINE
  5
3D6
330
1F
100
AcDbEntity
  8
0
100
AcDbLine
 10
105.4634568022464
 20
149.5734849194438
 30
0.0
 11
106.4506842272821
 21
150.5607123444795
 31
0.0
  0
LINE
  5
3D7
330
1F
100
AcDbEntity
  8
0
100
AcDbLine
 10
106.9672703200613
 20
151.0772984372587
 30
0.0
 11
108.1221207399895
 21
152.2321488571869
 31
0.0
  0
LINE
  5
3D8
330
1F
100
AcDbEntity
  8
0
100
AcDbLine
 10
109.3097625273742
 20
153.4197906445715
 30
0.0
 11
110.3532872483616
 21
154.463315365559
 31
0.0
  0
LINE
  5
3D9
330
1F
100
AcDbEntity
  8
0
100
AcDbLine
 10
105.4328240373271
 20
149.5803288139273
 30
0.0
 11
106.4119734634145
 21
150.5594782400148
 31
0.0
  0
LINE
  5
3DA
330
1F
100
AcDbEntity
  8
0
100
AcDbLine
 10
106.9583187770206
 20
151.1058235536208
 30
0.0
 11
108.1012752490796
 21
152.2487800256798
 31
0.0
  0
LINE
  5
3DB
330
1F
100
AcDbEntity
  8
0
100
AcDbLine
 10
109.3097625273742
 20
153.4572673039744
 30
0.0
 11
110.3158105889588
 21
154.463315365559
 31
0.0
  0
LINE
  5
3DC
330
1F
100
AcDbEntity
  8
0
100
AcDbLine
 10
105.4024082977273
 20
149.5873897337304
 30
0.0
 11
106.3751036165198
 21
150.5600850525229
 31
0.0
  0
LINE
  5
3DD
330
1F
100
AcDbEntity
  8
0
100
AcDbLine
 10
106.9472361148395
 20
151.1322175508426
 30
0.0
 11
108.0801139777023
 21
152.2650954137054
 31
0.0
  0
LINE
  5
3DE
330
1F
100
AcDbEntity
  8
0
100
AcDbLine
 10
109.3097625273742
 20
153.4947439633773
 30
0.0
 11
110.2783339295559
 21
154.463315365559
 31
0.0
  0
LINE
  5
3DF
330
1F
100
AcDbEntity
  8
0
100
AcDbLine
 10
105.3724327762901
 20
149.5948908716961
 30
0.0
 11
106.3394775499895
 21
150.5619356453956
 31
0.0
  0
LINE
  5
3E0
330
1F
100
AcDbEntity
  8
0
100
AcDbLine
 10
106.9343243543038
 20
151.1567824497098
 30
0.0
 11
108.0586378975115
 21
152.2810959929175
 31
0.0
  0
LINE
  5
3E1
330
1F
100
AcDbEntity
  8
0
100
AcDbLine
 10
109.3097625273742
 20
153.5322206227802
 30
0.0
 11
110.240857270153
 21
154.463315365559
 31
0.0
  0
LINE
  5
3E2
330
1F
100
AcDbEntity
  8
0
100
AcDbLine
 10
105.3426904893694
 20
149.6026252441783
 30
0.0
 11
106.3056346795248
 21
150.5655694343336
 31
0.0
  0
LINE
  5
3E3
330
1F
100
AcDbEntity
  8
0
100
AcDbLine
 10
106.919903762403
 20
151.1798385172119
 30
0.0
 11
108.0368581516829
 21
152.2967929064918
 31
0.0
  0
LINE
  5
3E4
330
1F
100
AcDbEntity
  8
0
100
AcDbLine
 10
109.3097625273742
 20
153.5696972821831
 30
0.0
 11
110.2033806107501
 21
154.463315365559
 31
0.0
  0
LINE
  5
3E5
330
1F
100
AcDbEntity
  8
0
100
AcDbLine
 10
105.3131784813466
 20
149.6105898955584
 30
0.0
 11
106.2735024631738
 21
150.5709138773856
 31
0.0
  0
LINE
  5
3E6
330
1F
100
AcDbEntity
  8
0
100
AcDbLine
 10
106.9041197623899
 20
151.2015311766016
 30
0.0
 11
108.0147806890005
 21
152.3121921032123
 31
0.0
  0
LINE
  5
3E7
330
1F
100
AcDbEntity
  8
0
100
AcDbLine
 10
109.3097625273742
 20
153.607173941586
 30
0.0
 11
110.1659039513472
 21
154.463315365559
 31
0.0
  0
LINE
  5
3E8
330
1F
100
AcDbEntity
  8
0
100
AcDbLine
 10
105.2841127667483
 20
149.619000840363
 30
0.0
 11
106.2426256417306
 21
150.5775137153452
 31
0.0
  0
LINE
  5
3E9
330
1F
100
AcDbEntity
  8
0
100
AcDbLine
 10
106.8870911203803
 20
151.2219791939949
 30
0.0
 11
107.9924135519936
 21
152.3273016256083
 31
0.0
  0
LINE
  5
3EA
330
1F
100
AcDbEntity
  8
0
100
AcDbLine
 10
109.3097625273742
 20
153.6446506009889
 30
0.0
 11
110.1284272919443
 21
154.463315365559
 31
0.0
  0
LINE
  5
3EB
330
1F
100
AcDbEntity
  8
0
100
AcDbLine
 10
105.2553088091384
 20
149.6276735421559
 30
0.0
 11
106.2127385324896
 21
150.5851032655072
 31
0.0
  0
LINE
  5
3EC
330
1F
100
AcDbEntity
  8
0
100
AcDbLine
 10
106.8692659160512
 20
151.2416306490688
 30
0.0
 11
107.9697619865406
 21
152.3421267195582
 31
0.0
  0
LINE
  5
3ED
330
1F
100
AcDbEntity
  8
0
100
AcDbLine
 10
109.3097625273742
 20
153.6821272603918
 30
0.0
 11
110.0909506325414
 21
154.463315365559
 31
0.0
  0
LINE
  5
3EE
330
1F
100
AcDbEntity
  8
0
100
AcDbLine
 10
105.2267615814155
 20
149.6366029738359
 30
0.0
 11
106.1841406399008
 21
150.5939820323212
 31
0.0
  0
LINE
  5
3EF
330
1F
100
AcDbEntity
  8
0
100
AcDbLine
 10
106.8509099935746
 20
151.260751385995
 30
0.0
 11
107.946842442647
 21
152.3566838350674
 31
0.0
  0
LINE
  5
3F0
330
1F
100
AcDbEntity
  8
0
100
AcDbLine
 10
109.3097625273742
 20
153.7196039197946
 30
0.0
 11
110.0534739731386
 21
154.463315365559
 31
0.0
  0
LINE
  5
3F1
330
1F
100
AcDbEntity
  8
0
100
AcDbLine
 10
105.1986572122054
 20
149.6459752640287
 30
0.0
 11
106.1567631771052
 21
150.6040812289285
 31
0.0
  0
LINE
  5
3F2
330
1F
100
AcDbEntity
  8
0
100
AcDbLine
 10
106.8312037944849
 20
151.2785218463083
 30
0.0
 11
107.9236609267708
 21
152.3709789785941
 31
0.0
  0
LINE
  5
3F3
330
1F
100
AcDbEntity
  8
0
100
AcDbLine
 10
109.3097625273742
 20
153.7570805791975
 30
0.0
 11
110.0159973137357
 21
154.463315365559
 31
0.0
  0
LINE
  5
3F4
330
1F
100
AcDbEntity
  8
0
100
AcDbLine
 10
105.1708657600464
 20
149.6556604712726
 30
0.0
 11
106.1306323615198
 21
150.615427072746
 31
0.0
  0
LINE
  5
3F5
330
1F
100
AcDbEntity
  8
0
100
AcDbLine
 10
106.8102804986584
 20
151.2950752098846
 30
0.0
 11
107.9002272824493
 21
152.3850219936755
 31
0.0
  0
LINE
  5
3F6
330
1F
100
AcDbEntity
  8
0
100
AcDbLine
 10
109.3097625273742
 20
153.7945572386004
 30
0.0
 11
109.9785206543328
 21
154.463315365559
 31
0.0
  0
LINE
  5
3F7
330
1F
100
AcDbEntity
  8
0
100
AcDbLine
 10
105.1433391617768
 20
149.6656105324059
 30
0.0
 11
106.1053983335049
 21
150.627669704134
 31
0.0
  0
LINE
  5
3F8
330
1F
100
AcDbEntity
  8
0
100
AcDbLine
 10
106.7879246888606
 20
151.3101960594897
 30
0.0
 11
107.8765495715347
 21
152.3988209421638
 31
0.0
  0
LINE
  5
3F9
330
1F
100
AcDbEntity
  8
0
100
AcDbLine
 10
108.4553669494447
 20
152.9776383200738
 30
0.0
 11
108.4870444523949
 21
153.009315823024
 31
0.0
  0
LINE
  5
3FA
330
1F
100
AcDbEntity
  8
0
100
AcDbLine
 10
109.3097625273742
 20
153.8320338980033
 30
0.0
 11
109.9410439949299
 21
154.463315365559
 31
0.0
  0
LINE
  5
3FB
330
1F
100
AcDbEntity
  8
0
100
AcDbLine
 10
105.1162624895352
 20
149.6760105195671
 30
0.0
 11
106.0809982797818
 21
150.6407463098137
 31
0.0
  0
LINE
  5
3FC
330
1F
100
AcDbEntity
  8
0
100
AcDbLine
 10
106.7641558875891
 20
151.3239039176211
 30
0.0
 11
107.8526397762261
 21
152.4123878062581
 31
0.0
  0
LINE
  5
3FD
330
1F
100
AcDbEntity
  8
0
100
AcDbLine
 10
108.415684376853
 20
152.975432406885
 30
0.0
 11
108.4823946440913
 21
153.0421426741233
 31
0.0
  0
LINE
  5
3FE
330
1F
100
AcDbEntity
  8
0
100
AcDbLine
 10
109.3097625273742
 20
153.8695105574062
 30
0.0
 11
109.903567335527
 21
154.463315365559
 31
0.0
  0
LINE
  5
3FF
330
1F
100
AcDbEntity
  8
0
100
AcDbLine
 10
105.0895196762963
 20
149.6867443657311
 30
0.0
 11
106.0573883271141
 21
150.654613016549
 31
0.0
  0
LINE
  5
400
330
1F
100
AcDbEntity
  8
0
100
AcDbLine
 10
106.739541835936
 20
151.3367665253708
 30
0.0
 11
107.8284773453486
 21
152.4257020347835
 31
0.0
  0
LINE
  5
401
330
1F
100
AcDbEntity
  8
0
100
AcDbLine
 10
108.3760018042614
 20
152.9732264936962
 30
0.0
 11
108.4775977702546
 21
153.0748224596894
 31
0.0
  0
LINE
  5
402
330
1F
100
AcDbEntity
  8
0
100
AcDbLine
 10
109.3097625273742
 20
153.9069872168091
 30
0.0
 11
109.8660906761242
 21
154.463315365559
 31
0.0
  0
LINE
  5
403
330
1F
100
AcDbEntity
  8
0
100
AcDbLine
 10
105.063087484176
 20
149.6977888330137
 30
0.0
 11
106.0347303700415
 21
150.6694317188793
 31
0.0
  0
LINE
  5
404
330
1F
100
AcDbEntity
  8
0
100
AcDbLine
 10
106.7145197798064
 20
151.3492211286442
 30
0.0
 11
107.8040289876386
 21
152.4387303364763
 31
0.0
  0
LINE
  5
405
330
1F
100
AcDbEntity
  8
0
100
AcDbLine
 10
108.3363192316697
 20
152.9710205805074
 30
0.0
 11
108.4725796086669
 21
153.1072809575047
 31
0.0
  0
LINE
  5
406
330
1F
100
AcDbEntity
  8
0
100
AcDbLine
 10
109.3097625273742
 20
153.9444638762119
 30
0.0
 11
109.8286140167213
 21
154.463315365559
 31
0.0
  0
LINE
  5
407
330
1F
100
AcDbEntity
  8
0
100
AcDbLine
 10
105.0370306087138
 20
149.7092086169544
 30
0.0
 11
106.0128893229168
 21
150.6850673311574
 31
0.0
  0
LINE
  5
408
330
1F
100
AcDbEntity
  8
0
100
AcDbLine
 10
106.68901200999
 20
151.3611900182306
 30
0.0
 11
107.7793030180728
 21
152.4514810263134
 31
0.0
  0
LINE
  5
409
330
1F
100
AcDbEntity
  8
0
100
AcDbLine
 10
108.2966366590781
 20
152.9688146673187
 30
0.0
 11
108.4672698323275
 21
153.1394478405681
 31
0.0
  0
LINE
  5
40A
330
1F
100
AcDbEntity
  8
0
100
AcDbLine
 10
109.3097625273742
 20
153.9819405356148
 30
0.0
 11
109.7911373573184
 21
154.463315365559
 31
0.0
  0
LINE
  5
40B
330
1F
100
AcDbEntity
  8
0
100
AcDbLine
 10
105.0114012372684
 20
149.7210559049119
 30
0.0
 11
105.9919789562661
 21
150.7016336239096
 31
0.0
  0
LINE
  5
40C
330
1F
100
AcDbEntity
  8
0
100
AcDbLine
 10
106.6628991865578
 20
151.3725538542013
 30
0.0
 11
107.7542792854566
 21
152.4639339531001
 31
0.0
  0
LINE
  5
40D
330
1F
100
AcDbEntity
  8
0
100
AcDbLine
 10
108.2569540864864
 20
152.9666087541299
 30
0.0
 11
108.4616032279492
 21
153.1712578955927
 31
0.0
  0
LINE
  5
40E
330
1F
100
AcDbEntity
  8
0
100
AcDbLine
 10
109.3097625273742
 20
154.0194171950177
 30
0.0
 11
109.7536606979155
 21
154.463315365559
 31
0.0
  0
LINE
  5
40F
330
1F
100
AcDbEntity
  8
0
100
AcDbLine
 10
104.9860671362921
 20
149.7331984633385
 30
0.0
 11
105.9717634135601
 21
150.7188947406065
 31
0.0
  0
LINE
  5
410
330
1F
100
AcDbEntity
  8
0
100
AcDbLine
 10
106.636212376989
 20
151.3833437040354
 30
0.0
 11
107.728990567194
 21
152.4761218942404
 31
0.0
  0
LINE
  5
411
330
1F
100
AcDbEntity
  8
0
100
AcDbLine
 10
108.2172715138948
 20
152.9644028409411
 30
0.0
 11
108.4555398099341
 21
153.2026711369805
 31
0.0
  0
LINE
  5
412
330
1F
100
AcDbEntity
  8
0
100
AcDbLine
 10
109.3097625273742
 20
154.0568938544206
 30
0.0
 11
109.7161840385126
 21
154.463315365559
 31
0.0
  0
LINE
  5
413
330
1F
100
AcDbEntity
  8
0
100
AcDbLine
 10
104.9610235676638
 20
149.7456315541131
 30
0.0
 11
105.9523927985782
 21
150.7370007850275
 31
0.0
  0
LINE
  5
414
330
1F
100
AcDbEntity
  8
0
100
AcDbLine
 10
106.608946548281
 20
151.3935545347303
 30
0.0
 11
107.7034513938485
 21
152.4880593802978
 31
0.0
  0
LINE
  5
415
330
1F
100
AcDbEntity
  8
0
100
AcDbLine
 10
108.1775889413031
 20
152.9621969277524
 30
0.0
 11
108.4490564947671
 21
153.2336644812164
 31
0.0
  0
LINE
  5
416
330
1F
100
AcDbEntity
  8
0
100
AcDbLine
 10
109.3097625273742
 20
154.0943705138235
 30
0.0
 11
109.6787073791097
 21
154.463315365559
 31
0.0
  0
LINE
  5
417
330
1F
100
AcDbEntity
  8
0
100
AcDbLine
 10
104.9364913689853
 20
149.7585760148374
 30
0.0
 11
105.9338047309824
 21
150.7558893768345
 31
0.0
  0
LINE
  5
418
330
1F
100
AcDbEntity
  8
0
100
AcDbLine
 10
106.5812354662014
 20
151.4033201120535
 30
0.0
 11
107.6776823611069
 21
152.499767006959
 31
0.0
  0
LINE
  5
419
330
1F
100
AcDbEntity
  8
0
100
AcDbLine
 10
108.1379063687115
 20
152.9599910145636
 30
0.0
 11
108.4421586295866
 21
153.2642432754387
 31
0.0
  0
LINE
  5
41A
330
1F
100
AcDbEntity
  8
0
100
AcDbLine
 10
109.3097625273742
 20
154.1318471732264
 30
0.0
 11
109.6412307197068
 21
154.463315365559
 31
0.0
  0
LINE
  5
41B
330
1F
100
AcDbEntity
  8
0
100
AcDbLine
 10
104.9122391661023
 20
149.7718004713574
 30
0.0
 11
105.9160142933374
 21
150.7755755985924
 31
0.0
  0
LINE
  5
41C
330
1F
100
AcDbEntity
  8
0
100
AcDbLine
 10
106.5531906504162
 20
151.4127519556712
 30
0.0
 11
107.6517035361582
 21
152.5112648414133
 31
0.0
  0
LINE
  5
41D
330
1F
100
AcDbEntity
  8
0
100
AcDbLine
 10
108.0982237961198
 20
152.9577851013748
 30
0.0
 11
108.4348510680399
 21
153.2944123732949
 31
0.0
  0
LINE
  5
41E
330
1F
100
AcDbEntity
  8
0
100
AcDbLine
 10
109.3097625273742
 20
154.1693238326292
 30
0.0
 11
109.603754060304
 21
154.463315365559
 31
0.0
  0
LINE
  5
41F
330
1F
100
AcDbEntity
  8
0
100
AcDbLine
 10
104.8883116106349
 20
149.7853495752928
 30
0.0
 11
105.8989537649366
 21
150.7959917295945
 31
0.0
  0
LINE
  5
420
330
1F
100
AcDbEntity
  8
0
100
AcDbLine
 10
106.5248700283306
 20
151.4219079929885
 30
0.0
 11
107.6255070583593
 21
152.5225450230172
 31
0.0
  0
LINE
  5
421
330
1F
100
AcDbEntity
  8
0
100
AcDbLine
 10
108.0585412235282
 20
152.9555791881861
 30
0.0
 11
108.4271383956267
 21
153.3241763602846
 31
0.0
  0
LINE
  5
422
330
1F
100
AcDbEntity
  8
0
100
AcDbLine
 10
109.3097625273742
 20
154.2068004920321
 30
0.0
 11
109.5662774009011
 21
154.463315365559
 31
0.0
  0
LINE
  5
423
330
1F
100
AcDbEntity
  8
0
100
AcDbLine
 10
104.8647846941035
 20
149.7992993181643
 30
0.0
 11
105.8822723357081
 21
150.8167869597689
 31
0.0
  0
LINE
  5
424
330
1F
100
AcDbEntity
  8
0
100
AcDbLine
 10
106.4963453332965
 20
151.4308599573573
 30
0.0
 11
107.5991133902916
 21
152.5336280143524
 31
0.0
  0
LINE
  5
425
330
1F
100
AcDbEntity
  8
0
100
AcDbLine
 10
108.0188586509365
 20
152.9533732749973
 30
0.0
 11
108.4190249487696
 21
153.3535395728304
 31
0.0
  0
LINE
  5
426
330
1F
100
AcDbEntity
  8
0
100
AcDbLine
 10
109.3097625273742
 20
154.244277151435
 30
0.0
 11
109.5288007414982
 21
154.463315365559
 31
0.0
  0
LINE
  5
427
330
1F
100
AcDbEntity
  8
0
100
AcDbLine
 10
104.8416985635311
 20
149.8136898469947
 30
0.0
 11
105.8663363902103
 21
150.838327673674
 31
0.0
  0
LINE
  5
428
330
1F
100
AcDbEntity
  8
0
100
AcDbLine
 10
106.467664677359
 20
151.4396559608226
 30
0.0
 11
107.5725382363844
 21
152.5445295198481
 31
0.0
  0
LINE
  5
429
330
1F
100
AcDbEntity
  8
0
100
AcDbLine
 10
107.9791760783448
 20
152.9511673618085
 30
0.0
 11
108.4104496946692
 21
153.3824409781328
 31
0.0
  0
LINE
  5
42A
330
1F
100
AcDbEntity
  8
0
100
AcDbLine
 10
109.3097625273742
 20
154.2817538108379
 30
0.0
 11
109.4913240820953
 21
154.463315365559
 31
0.0
  0
LINE
  5
42B
330
1F
100
AcDbEntity
  8
0
100
AcDbLine
 10
104.8189525506777
 20
149.8284204935443
 30
0.0
 11
105.8514132426087
 21
150.8608811854753
 31
0.0
  0
LINE
  5
42C
330
1F
100
AcDbEntity
  8
0
100
AcDbLine
 10
106.4388175044332
 20
151.4482854472998
 30
0.0
 11
107.5457766927141
 21
152.5552446355807
 31
0.0
  0
LINE
  5
42D
330
1F
100
AcDbEntity
  8
0
100
AcDbLine
 10
107.9394935057532
 20
152.9489614486198
 30
0.0
 11
108.4015968219558
 21
153.4110647648224
 31
0.0
  0
LINE
  5
42E
330
1F
100
AcDbEntity
  8
0
100
AcDbLine
 10
109.3097625273742
 20
154.3192304702408
 30
0.0
 11
109.4538474226924
 21
154.463315365559
 31
0.0
  0
LINE
  5
42F
330
1F
100
AcDbEntity
  8
0
100
AcDbLine
 10
104.7965477836994
 20
149.8434923859689
 30
0.0
 11
105.837911768053
 21
150.8848563703225
 31
0.0
  0
LINE
  5
430
330
1F
100
AcDbEntity
  8
0
100
AcDbLine
 10
106.4097637583607
 20
151.4567083606302
 30
0.0
 11
107.5188066677135
 21
152.5657512699829
 31
0.0
  0
LINE
  5
431
330
1F
100
AcDbEntity
  8
0
100
AcDbLine
 10
107.8998109331615
 20
152.946755535431
 30
0.0
 11
108.392367904332
 21
153.4393125066014
 31
0.0
  0
LINE
  5
432
330
1F
100
AcDbEntity
  8
0
100
AcDbLine
 10
109.3097625273742
 20
154.3567071296437
 30
0.0
 11
109.4163707632895
 21
154.463315365559
 31
0.0
  0
LINE
  5
433
330
1F
100
AcDbEntity
  8
0
100
AcDbLine
 10
104.7746598850828
 20
149.8590811467552
 30
0.0
 11
105.8257497058051
 21
150.9101709674774
 31
0.0
  0
LINE
  5
434
330
1F
100
AcDbEntity
  8
0
100
AcDbLine
 10
106.3804638692786
 20
151.4648851309509
 30
0.0
 11
107.4915722034924
 21
152.5759934651648
 31
0.0
  0
LINE
  5
435
330
1F
100
AcDbEntity
  8
0
100
AcDbLine
 10
107.8601283605699
 20
152.9445496222422
 30
0.0
 11
108.3826979231953
 21
153.4671191848676
 31
0.0
  0
LINE
  5
436
330
1F
100
AcDbEntity
  8
0
100
AcDbLine
 10
109.3097625273742
 20
154.3941837890465
 30
0.0
 11
109.3788941038867
 21
154.463315365559
 31
0.0
  0
LINE
  5
437
330
1F
100
AcDbEntity
  8
0
100
AcDbLine
 10
104.7531729818787
 20
149.8750709029539
 30
0.0
 11
105.8143039038045
 21
150.9362018248798
 31
0.0
  0
LINE
  5
438
330
1F
100
AcDbEntity
  8
0
100
AcDbLine
 10
106.3508880819334
 20
151.4727860030087
 30
0.0
 11
107.4641767005786
 21
152.5860746216538
 31
0.0
  0
LINE
  5
439
330
1F
100
AcDbEntity
  8
0
100
AcDbLine
 10
107.8204457879782
 20
152.9423437090535
 30
0.0
 11
108.3727746598565
 21
153.4946725809317
 31
0.0
  0
LINE
  5
43A
330
1F
100
AcDbEntity
  8
0
100
AcDbLine
 10
109.3097625273742
 20
154.4316604484494
 30
0.0
 11
109.3414174444838
 21
154.463315365559
 31
0.0
  0
LINE
  5
43B
330
1F
100
AcDbEntity
  8
0
100
AcDbLine
 10
104.7320682475612
 20
149.8914428280393
 30
0.0
 11
105.8034227573187
 21
150.9627973377968
 31
0.0
  0
LINE
  5
43C
330
1F
100
AcDbEntity
  8
0
100
AcDbLine
 10
106.3210706074397
 20
151.4804451879178
 30
0.0
 11
107.4366230276767
 21
152.5959976081548
 31
0.0
  0
LINE
  5
43D
330
1F
100
AcDbEntity
  8
0
100
AcDbLine
 10
107.7807632153866
 20
152.9401377958647
 30
0.0
 11
108.3625014573215
 21
153.5218760377996
 31
0.0
  0
LINE
  5
43E
330
1F
100
AcDbEntity
  8
0
100
AcDbLine
 10
104.7113370293471
 20
149.9081882692281
 30
0.0
 11
105.7932660639135
 21
150.9901173037945
 31
0.0
  0
LINE
  5
43F
330
1F
100
AcDbEntity
  8
0
100
AcDbLine
 10
106.2910435583958
 20
151.4878947982768
 30
0.0
 11
107.4088621053263
 21
152.6057133452073
 31
0.0
  0
LINE
  5
440
330
1F
100
AcDbEntity
  8
0
100
AcDbLine
 10
107.7410806427949
 20
152.9379318826759
 30
0.0
 11
108.3518386047696
 21
153.5486898446506
 31
0.0
  0
LINE
  5
441
330
1F
100
AcDbEntity
  8
0
100
AcDbLine
 10
104.6911135665895
 20
149.9254414658733
 30
0.0
 11
105.7839006428072
 21
151.0182285420911
 31
0.0
  0
LINE
  5
442
330
1F
100
AcDbEntity
  8
0
100
AcDbLine
 10
106.2608367528864
 20
151.4951646521702
 30
0.0
 11
107.3809516875926
 21
152.6152795868765
 31
0.0
  0
LINE
  5
443
330
1F
100
AcDbEntity
  8
0
100
AcDbLine
 10
107.7013980702033
 20
152.9357259694872
 30
0.0
 11
108.3409087472304
 21
153.5752366465143
 31
0.0
  0
LINE
  5
444
330
1F
100
AcDbEntity
  8
0
100
AcDbLine
 10
104.6712913711864
 20
149.9430959298731
 30
0.0
 11
105.775157511062
 21
151.0469620697488
 31
0.0
  0
LINE
  5
445
330
1F
100
AcDbEntity
  8
0
100
AcDbLine
 10
106.2304761320284
 20
151.5022806907152
 30
0.0
 11
107.352924587111
 21
152.6247291457977
 31
0.0
  0
LINE
  5
446
330
1F
100
AcDbEntity
  8
0
100
AcDbLine
 10
107.6617154976116
 20
152.9335200562984
 30
0.0
 11
108.3296133607957
 21
153.6014179194825
 31
0.0
  0
LINE
  5
447
330
1F
100
AcDbEntity
  8
0
100
AcDbLine
 10
104.6518315582939
 20
149.9611127763835
 30
0.0
 11
105.7669289241954
 21
151.076210142285
 31
0.0
  0
LINE
  5
448
330
1F
100
AcDbEntity
  8
0
100
AcDbLine
 10
106.2000070266135
 20
151.5092882447031
 30
0.0
 11
107.3247792332834
 21
152.634060451373
 31
0.0
  0
LINE
  5
449
330
1F
100
AcDbEntity
  8
0
100
AcDbLine
 10
107.62203292502
 20
152.9313141431096
 30
0.0
 11
108.3178461810679
 21
153.6271273991576
 31
0.0
  0
LINE
  5
44A
330
1F
100
AcDbEntity
  8
0
100
AcDbLine
 10
104.6327315492102
 20
149.9794894267028
 30
0.0
 11
105.7592679073397
 21
151.1060257848322
 31
0.0
  0
LINE
  5
44B
330
1F
100
AcDbEntity
  8
0
100
AcDbLine
 10
106.1694600407441
 20
151.5162179182366
 30
0.0
 11
107.2964915766817
 21
152.6432494541742
 31
0.0
  0
LINE
  5
44C
330
1F
100
AcDbEntity
  8
0
100
AcDbLine
 10
107.5823503524283
 20
152.9291082299209
 30
0.0
 11
108.3057789488544
 21
153.6525368263469
 31
0.0
  0
LINE
  5
44D
330
1F
100
AcDbEntity
  8
0
100
AcDbLine
 10
104.6141079788193
 20
149.9983425157147
 30
0.0
 11
105.7521278593397
 21
151.1363623962351
 31
0.0
  0
LINE
  5
44E
330
1F
100
AcDbEntity
  8
0
100
AcDbLine
 10
106.138866269069
 20
151.5231008059644
 30
0.0
 11
107.2681244718146
 21
152.6523590087101
 31
0.0
  0
LINE
  5
44F
330
1F
100
AcDbEntity
  8
0
100
AcDbLine
 10
107.5426677798366
 20
152.9269023167321
 30
0.0
 11
108.2932700895575
 21
153.6775046264529
 31
0.0
  0
LINE
  5
450
330
1F
100
AcDbEntity
  8
0
100
AcDbLine
 10
104.5958632593919
 20
150.0175744556902
 30
0.0
 11
105.7454684822048
 21
151.1671796785031
 31
0.0
  0
LINE
  5
451
330
1F
100
AcDbEntity
  8
0
100
AcDbLine
 10
106.1083463734481
 20
151.5300575697464
 30
0.0
 11
107.2396457362585
 21
152.6613569325568
 31
0.0
  0
LINE
  5
452
330
1F
100
AcDbEntity
  8
0
100
AcDbLine
 10
107.502985207245
 20
152.9246964035433
 30
0.0
 11
108.2802564220283
 21
153.7019676183266
 31
0.0
  0
LINE
  5
453
330
1F
100
AcDbEntity
  8
0
100
AcDbLine
 10
104.577933670716
 20
150.0371215264172
 30
0.0
 11
105.7392008982747
 21
151.1983887539759
 31
0.0
  0
LINE
  5
454
330
1F
100
AcDbEntity
  8
0
100
AcDbLine
 10
106.0779183841243
 20
151.5371062398254
 30
0.0
 11
107.21105073319
 21
152.6702385888912
 31
0.0
  0
LINE
  5
455
330
1F
100
AcDbEntity
  8
0
100
AcDbLine
 10
107.4633026346534
 20
152.9224904903545
 30
0.0
 11
108.2669129251099
 21
153.7261007808111
 31
0.0
  0
LINE
  5
456
330
1F
100
AcDbEntity
  8
0
100
AcDbLine
 10
104.5603019967581
 20
150.0569665118621
 30
0.0
 11
105.7332707442533
 21
151.2299352593573
 31
0.0
  0
LINE
  5
457
330
1F
100
AcDbEntity
  8
0
100
AcDbLine
 10
106.0475182515803
 20
151.5441827666844
 30
0.0
 11
107.1823843687336
 21
152.6790488838377
 31
0.0
  0
LINE
  5
458
330
1F
100
AcDbEntity
  8
0
100
AcDbLine
 10
107.4236200620617
 20
152.9202845771658
 30
0.0
 11
108.2531470989151
 21
153.7498116140191
 31
0.0
  0
LINE
  5
459
330
1F
100
AcDbEntity
  8
0
100
AcDbLine
 10
104.5429867237606
 20
150.0771278982676
 30
0.0
 11
105.7277102235959
 21
151.2618513981028
 31
0.0
  0
LINE
  5
45A
330
1F
100
AcDbEntity
  8
0
100
AcDbLine
 10
106.0171811490752
 20
151.5513223235821
 30
0.0
 11
107.1536148079157
 21
152.6877559824226
 31
0.0
  0
LINE
  5
45B
330
1F
100
AcDbEntity
  8
0
100
AcDbLine
 10
107.3839374894701
 20
152.918078663977
 30
0.0
 11
108.2389194321769
 21
153.7730606066839
 31
0.0
  0
LINE
  5
45C
330
1F
100
AcDbEntity
  8
0
100
AcDbLine
 10
104.5259848531341
 20
150.097602687044
 30
0.0
 11
105.7225594383301
 21
151.2941772722399
 31
0.0
  0
LINE
  5
45D
330
1F
100
AcDbEntity
  8
0
100
AcDbLine
 10
105.9869128399422
 20
151.5585306738521
 30
0.0
 11
107.1247444207554
 21
152.6963622546653
 31
0.0
  0
LINE
  5
45E
330
1F
100
AcDbEntity
  8
0
100
AcDbLine
 10
107.3442549168784
 20
152.9158727507882
 30
0.0
 11
108.2244199648777
 21
153.7960377987875
 31
0.0
  0
LINE
  5
45F
330
1F
100
AcDbEntity
  8
0
100
AcDbLine
 10
104.5092330963889
 20
150.1183275897016
 30
0.0
 11
105.7177620999954
 21
151.3268565933081
 31
0.0
  0
LINE
  5
460
330
1F
100
AcDbEntity
  8
0
100
AcDbLine
 10
105.9567259135547
 20
151.5658204068674
 30
0.0
 11
107.0958162067789
 21
152.7049107000917
 31
0.0
  0
LINE
  5
461
330
1F
100
AcDbEntity
  8
0
100
AcDbLine
 10
107.3045723442867
 20
152.9136668375995
 30
0.0
 11
108.2095641369626
 21
153.8186586302753
 31
0.0
  0
LINE
  5
462
330
1F
100
AcDbEntity
  8
0
100
AcDbLine
 10
104.4926219503794
 20
150.139193103095
 30
0.0
 11
105.7131967617907
 21
151.3597679145063
 31
0.0
  0
LINE
  5
463
330
1F
100
AcDbEntity
  8
0
100
AcDbLine
 10
105.9266393308913
 20
151.5732104836069
 30
0.0
 11
107.0667231497661
 21
152.7132943024817
 31
0.0
  0
LINE
  5
464
330
1F
100
AcDbEntity
  8
0
100
AcDbLine
 10
107.2648897716951
 20
152.9114609244107
 30
0.0
 11
108.1943026635663
 21
153.8408738162819
 31
0.0
  0
LINE
  5
465
330
1F
100
AcDbEntity
  8
0
100
AcDbLine
 10
104.4764163963569
 20
150.1604642084753
 30
0.0
 11
105.6927993637113
 21
151.3768471758298
 31
0.0
  0
LINE
  5
466
330
1F
100
AcDbEntity
  8
0
100
AcDbLine
 10
105.8967180566276
 20
151.5807658687461
 30
0.0
 11
107.0375606474933
 21
152.7216084596117
 31
0.0
  0
LINE
  5
467
330
1F
100
AcDbEntity
  8
0
100
AcDbLine
 10
107.2252071991035
 20
152.9092550112219
 30
0.0
 11
108.1787752850479
 21
153.8628230971664
 31
0.0
  0
LINE
  5
468
330
1F
100
AcDbEntity
  8
0
100
AcDbLine
 10
104.4603827391555
 20
150.1819072106768
 30
0.0
 11
105.6530390140002
 21
151.3745634855215
 31
0.0
  0
LINE
  5
469
330
1F
100
AcDbEntity
  8
0
100
AcDbLine
 10
105.8669264220989
 20
151.5884508936203
 30
0.0
 11
107.0082892021857
 21
152.729813673707
 31
0.0
  0
LINE
  5
46A
330
1F
100
AcDbEntity
  8
0
100
AcDbLine
 10
107.1855246265118
 20
152.9070490980332
 30
0.0
 11
108.1629016132117
 21
153.8844260847331
 31
0.0
  0
LINE
  5
46B
330
1F
100
AcDbEntity
  8
0
100
AcDbLine
 10
104.4446146106813
 20
150.2036157416056
 30
0.0
 11
105.6132786642891
 21
151.3722797952133
 31
0.0
  0
LINE
  5
46C
330
1F
100
AcDbEntity
  8
0
100
AcDbLine
 10
105.8372796442324
 20
151.5962807751567
 30
0.0
 11
106.9788702800436
 21
152.7378714109679
 31
0.0
  0
LINE
  5
46D
330
1F
100
AcDbEntity
  8
0
100
AcDbLine
 10
107.1458420539201
 20
152.9048431848444
 30
0.0
 11
108.1465502374658
 21
153.90555136839
 31
0.0
  0
LINE
  5
46E
330
1F
100
AcDbEntity
  8
0
100
AcDbLine
 10
104.4292132361954
 20
150.2256910265225
 30
0.0
 11
105.5735183145779
 21
151.3699961049051
 31
0.0
  0
LINE
  5
46F
330
1F
100
AcDbEntity
  8
0
100
AcDbLine
 10
105.8077754658142
 20
151.6042532561414
 30
0.0
 11
106.9494036150785
 21
152.7458814054056
 31
0.0
  0
LINE
  5
470
330
1F
100
AcDbEntity
  8
0
100
AcDbLine
 10
107.1061594813285
 20
152.9026372716556
 30
0.0
 11
108.1298980151717
 21
153.9263758054989
 31
0.0
  0
LINE
  5
471
330
1F
100
AcDbEntity
  8
0
100
AcDbLine
 10
104.4140061006432
 20
150.2479605503732
 30
0.0
 11
105.5337579648668
 21
151.3677124145968
 31
0.0
  0
LINE
  5
472
330
1F
100
AcDbEntity
  8
0
100
AcDbLine
 10
105.7784317848927
 20
151.6123862346227
 30
0.0
 11
106.9197635878368
 21
152.7537180375668
 31
0.0
  0
LINE
  5
473
330
1F
100
AcDbEntity
  8
0
100
AcDbLine
 10
107.0664769087368
 20
152.9004313584668
 30
0.0
 11
108.1128546171021
 21
153.9468090668321
 31
0.0
  0
LINE
  5
474
330
1F
100
AcDbEntity
  8
0
100
AcDbLine
 10
104.3991921470726
 20
150.2706232562055
 30
0.0
 11
105.4939976151556
 21
151.3654287242885
 31
0.0
  0
LINE
  5
475
330
1F
100
AcDbEntity
  8
0
100
AcDbLine
 10
105.7492550362978
 20
151.6206861454307
 30
0.0
 11
106.8900820519148
 21
152.7615131610478
 31
0.0
  0
LINE
  5
476
330
1F
100
AcDbEntity
  8
0
100
AcDbLine
 10
107.0267943361452
 20
152.8982254452781
 30
0.0
 11
108.0952685225187
 21
153.9666996316516
 31
0.0
  0
LINE
  5
477
330
1F
100
AcDbEntity
  8
0
100
AcDbLine
 10
104.3846842758393
 20
150.2935920443751
 30
0.0
 11
105.4542372654445
 21
151.3631450339803
 31
0.0
  0
LINE
  5
478
330
1F
100
AcDbEntity
  8
0
100
AcDbLine
 10
105.7202157331398
 20
151.6291235016756
 30
0.0
 11
106.8602941229801
 21
152.7692018915159
 31
0.0
  0
LINE
  5
479
330
1F
100
AcDbEntity
  8
0
100
AcDbLine
 10
106.9871117635535
 20
152.8960195320893
 30
0.0
 11
108.0773614270474
 21
153.9862691955831
 31
0.0
  0
LINE
  5
47A
330
1F
100
AcDbEntity
  8
0
100
AcDbLine
 10
104.370387476101
 20
150.3167719040397
 30
0.0
 11
105.4144769157333
 21
151.360861343672
 31
0.0
  0
LINE
  5
47B
330
1F
100
AcDbEntity
  8
0
100
AcDbLine
 10
105.6913121950356
 20
151.6376966229743
 30
0.0
 11
106.8304419546544
 21
152.7768263825931
 31
0.0
  0
LINE
  5
47C
330
1F
100
AcDbEntity
  8
0
100
AcDbLine
 10
106.9474291909619
 20
152.8938136189005
 30
0.0
 11
108.0590712138684
 21
154.005455641807
 31
0.0
  0
LINE
  5
47D
330
1F
100
AcDbEntity
  8
0
100
AcDbLine
 10
104.3565890124779
 20
150.3404500998195
 30
0.0
 11
105.3747165660222
 21
151.3585776533638
 31
0.0
  0
LINE
  5
47E
330
1F
100
AcDbEntity
  8
0
100
AcDbLine
 10
105.6625466133235
 20
151.6464077006651
 30
0.0
 11
106.8005361437305
 21
152.7843972310721
 31
0.0
  0
LINE
  5
47F
330
1F
100
AcDbEntity
  8
0
100
AcDbLine
 10
106.9077466183702
 20
152.8916077057118
 30
0.0
 11
108.0402564255434
 21
154.0241175128849
 31
0.0
  0
LINE
  5
480
330
1F
100
AcDbEntity
  8
0
100
AcDbLine
 10
104.3430296275838
 20
150.3643673743282
 30
0.0
 11
105.334956216311
 21
151.3562939630555
 31
0.0
  0
LINE
  5
481
330
1F
100
AcDbEntity
  8
0
100
AcDbLine
 10
105.6339779554795
 20
151.655315702224
 30
0.0
 11
106.7705638595546
 21
152.791901606299
 31
0.0
  0
LINE
  5
482
330
1F
100
AcDbEntity
  8
0
100
AcDbLine
 10
106.8680640457786
 20
152.889401792523
 30
0.0
 11
108.0211479237012
 21
154.0424856704456
 31
0.0
  0
LINE
  5
483
330
1F
100
AcDbEntity
  8
0
100
AcDbLine
 10
104.3297545302102
 20
150.3885689363575
 30
0.0
 11
105.2951958665999
 21
151.3540102727472
 31
0.0
  0
LINE
  5
484
330
1F
100
AcDbEntity
  8
0
100
AcDbLine
 10
105.6054918586522
 20
151.6643062647995
 30
0.0
 11
106.7405358051966
 21
152.7993502113439
 31
0.0
  0
LINE
  5
485
330
1F
100
AcDbEntity
  8
0
100
AcDbLine
 10
106.8581869078315
 20
152.9170013139788
 30
0.0
 11
108.0017046915876
 21
154.0605190977349
 31
0.0
  0
LINE
  5
486
330
1F
100
AcDbEntity
  8
0
100
AcDbLine
 10
104.3169574577531
 20
150.4132485233033
 30
0.0
 11
105.2554355168888
 21
151.351726582439
 31
0.0
  0
LINE
  5
487
330
1F
100
AcDbEntity
  8
0
100
AcDbLine
 10
105.5771815840063
 20
151.6734726495565
 30
0.0
 11
106.7104510273991
 21
152.8067420929493
 31
0.0
  0
LINE
  5
488
330
1F
100
AcDbEntity
  8
0
100
AcDbLine
 10
106.8524963489926
 20
152.9487874145428
 30
0.0
 11
107.981755323861
 21
154.0780463894112
 31
0.0
  0
LINE
  5
489
330
1F
100
AcDbEntity
  8
0
100
AcDbLine
 10
104.3043800192279
 20
150.438147744181
 30
0.0
 11
105.2156751671776
 21
151.3494428921307
 31
0.0
  0
LINE
  5
48A
330
1F
100
AcDbEntity
  8
0
100
AcDbLine
 10
105.5490090664693
 20
151.6827767914224
 30
0.0
 11
106.680304992292
 21
152.8140727172451
 31
0.0
  0
LINE
  5
48B
330
1F
100
AcDbEntity
  8
0
100
AcDbLine
 10
106.8461698252829
 20
152.9799375502359
 30
0.0
 11
107.9615223177048
 21
154.0952900426579
 31
0.0
  0
LINE
  5
48C
330
1F
100
AcDbEntity
  8
0
100
AcDbLine
 10
104.2921479980841
 20
150.4633923824401
 30
0.0
 11
105.1759148174665
 21
151.3471592018225
 31
0.0
  0
LINE
  5
48D
330
1F
100
AcDbEntity
  8
0
100
AcDbLine
 10
105.5209605613147
 20
151.6922049456707
 30
0.0
 11
106.6500785657211
 21
152.821322950077
 31
0.0
  0
LINE
  5
48E
330
1F
100
AcDbEntity
  8
0
100
AcDbLine
 10
106.8390455367905
 20
153.0102899211464
 30
0.0
 11
107.9409816398749
 21
154.1122260242309
 31
0.0
  0
LINE
  5
48F
330
1F
100
AcDbEntity
  8
0
100
AcDbLine
 10
104.2802774571167
 20
150.4889985008755
 30
0.0
 11
105.1361544677553
 21
151.3448755115142
 31
0.0
  0
LINE
  5
490
330
1F
100
AcDbEntity
  8
0
100
AcDbLine
 10
105.493103683971
 20
151.7018247277299
 30
0.0
 11
106.6197699540729
 21
152.8284909978318
 31
0.0
  0
LINE
  5
491
330
1F
100
AcDbEntity
  8
0
100
AcDbLine
 10
106.8313332433597
 20
153.0400542871186
 30
0.0
 11
107.9199066309567
 21
154.1286276747155
 31
0.0
  0
LINE
  5
492
330
1F
100
AcDbEntity
  8
0
100
AcDbLine
 10
104.2686128931451
 20
150.5148105963069
 30
0.0
 11
105.0963941180442
 21
151.342591821206
 31
0.0
  0
LINE
  5
493
330
1F
100
AcDbEntity
  8
0
100
AcDbLine
 10
105.4653202595985
 20
151.7115179627602
 30
0.0
 11
106.5893819729095
 21
152.8355796760712
 31
0.0
  0
LINE
  5
494
330
1F
100
AcDbEntity
  8
0
100
AcDbLine
 10
106.8232570022089
 20
153.0694547053706
 30
0.0
 11
107.8985353150159
 21
154.1447330181776
 31
0.0
  0
LINE
  5
495
330
1F
100
AcDbEntity
  8
0
100
AcDbLine
 10
104.2572924265582
 20
150.5409667891228
 30
0.0
 11
105.0566337683331
 21
151.3403081308977
 31
0.0
  0
LINE
  5
496
330
1F
100
AcDbEntity
  8
0
100
AcDbLine
 10
105.4377745510711
 20
151.7214489136358
 30
0.0
 11
106.5589098120993
 21
152.8425841746639
 31
0.0
  0
LINE
  5
497
330
1F
100
AcDbEntity
  8
0
100
AcDbLine
 10
106.814815659753
 20
153.0984900223177
 30
0.0
 11
107.8768636174076
 21
154.1605379799722
 31
0.0
  0
LINE
  5
498
330
1F
100
AcDbEntity
  8
0
100
AcDbLine
 10
104.2462529245159
 20
150.5674039464834
 30
0.0
 11
105.0168734186219
 21
151.3380244405894
 31
0.0
  0
LINE
  5
499
330
1F
100
AcDbEntity
  8
0
100
AcDbLine
 10
105.410310866694
 20
151.7314618886616
 30
0.0
 11
106.5283609341039
 21
152.8495119560715
 31
0.0
  0
LINE
  5
49A
330
1F
100
AcDbEntity
  8
0
100
AcDbLine
 10
106.8058600835043
 20
153.1270111054719
 30
0.0
 11
107.854626053737
 21
154.1757770757045
 31
0.0
  0
LINE
  5
49B
330
1F
100
AcDbEntity
  8
0
100
AcDbLine
 10
104.2353977373959
 20
150.5940254187663
 30
0.0
 11
104.9771130689108
 21
151.3357407502812
 31
0.0
  0
LINE
  5
49C
330
1F
100
AcDbEntity
  8
0
100
AcDbLine
 10
105.3830572888549
 20
151.7416849702253
 30
0.0
 11
106.4977160758815
 21
152.8563437572519
 31
0.0
  0
LINE
  5
49D
330
1F
100
AcDbEntity
  8
0
100
AcDbLine
 10
106.7961158498953
 20
153.1547435312657
 30
0.0
 11
107.8320961480504
 21
154.1907238294208
 31
0.0
  0
LINE
  5
49E
330
1F
100
AcDbEntity
  8
0
100
AcDbLine
 10
104.224937182595
 20
150.6210415233683
 30
0.0
 11
104.9373527191996
 21
151.3334570599729
 31
0.0
  0
LINE
  5
49F
330
1F
100
AcDbEntity
  8
0
100
AcDbLine
 10
105.3559520139809
 20
151.7520563547542
 30
0.0
 11
106.4670092675376
 21
152.8631136083109
 31
0.0
  0
LINE
  5
4A0
330
1F
100
AcDbEntity
  8
0
100
AcDbLine
 10
106.7855752910254
 20
153.1816796317987
 30
0.0
 11
107.8092794299386
 21
154.2053837707118
 31
0.0
  0
LINE
  5
4A1
330
1F
100
AcDbEntity
  8
0
100
AcDbLine
 10
104.2147464358809
 20
150.6483274360571
 30
0.0
 11
104.8975923694885
 21
151.3311733696646
 31
0.0
  0
LINE
  5
4A2
330
1F
100
AcDbEntity
  8
0
100
AcDbLine
 10
105.3289858263773
 20
151.7625668265535
 30
0.0
 11
106.436254662245
 21
152.8698356624212
 31
0.0
  0
LINE
  5
4A3
330
1F
100
AcDbEntity
  8
0
100
AcDbLine
 10
106.7741905581213
 20
153.2077715582975
 30
0.0
 11
107.7859445715529
 21
154.2195255717291
 31
0.0
  0
LINE
  5
4A4
330
1F
100
AcDbEntity
  8
0
100
AcDbLine
 10
104.2047802742005
 20
150.6758379337796
 30
0.0
 11
104.8578320197773
 21
151.3288896793564
 31
0.0
  0
LINE
  5
4A5
330
1F
100
AcDbEntity
  8
0
100
AcDbLine
 10
105.3022657559392
 20
151.7733234155183
 30
0.0
 11
106.4054598503385
 21
152.8765175099176
 31
0.0
  0
LINE
  5
4A6
330
1F
100
AcDbEntity
  8
0
100
AcDbLine
 10
106.7618672996
 20
153.232924959179
 30
0.0
 11
107.762328348033
 21
154.2333860076121
 31
0.0
  0
LINE
  5
4A7
330
1F
100
AcDbEntity
  8
0
100
AcDbLine
 10
104.1953226580842
 20
150.7038569770661
 30
0.0
 11
104.8180716700662
 21
151.3266059890481
 31
0.0
  0
LINE
  5
4A8
330
1F
100
AcDbEntity
  8
0
100
AcDbLine
 10
105.2756315042395
 20
151.7841658232215
 30
0.0
 11
106.3746287811831
 21
152.883163100165
 31
0.0
  0
LINE
  5
4A9
330
1F
100
AcDbEntity
  8
0
100
AcDbLine
 10
106.7486705962805
 20
153.2572049152624
 30
0.0
 11
107.7384430802664
 21
154.2469773992484
 31
0.0
  0
LINE
  5
4AA
330
1F
100
AcDbEntity
  8
0
100
AcDbLine
 10
104.1861501707827
 20
150.7321611491676
 30
0.0
 11
104.7783113203551
 21
151.3243222987399
 31
0.0
  0
LINE
  5
4AB
330
1F
100
AcDbEntity
  8
0
100
AcDbLine
 10
105.2492841327366
 20
151.7952951111215
 30
0.0
 11
106.3437807176277
 21
152.8897916960125
 31
0.0
  0
LINE
  5
4AC
330
1F
100
AcDbEntity
  8
0
100
AcDbLine
 10
106.7346350852431
 20
153.2806460636279
 30
0.0
 11
107.7141015450219
 21
154.2601125234067
 31
0.0
  0
LINE
  5
4AD
330
1F
100
AcDbEntity
  8
0
100
AcDbLine
 10
104.1772559676077
 20
150.7607436053954
 30
0.0
 11
104.7385509706439
 21
151.3220386084316
 31
0.0
  0
LINE
  5
4AE
330
1F
100
AcDbEntity
  8
0
100
AcDbLine
 10
105.2230884629407
 20
151.8065761007284
 30
0.0
 11
106.3129434239219
 21
152.8964310617096
 31
0.0
  0
LINE
  5
4AF
330
1F
100
AcDbEntity
  8
0
100
AcDbLine
 10
106.7198277947175
 20
153.3033154325052
 30
0.0
 11
107.6894796780211
 21
154.2729673158088
 31
0.0
  0
LINE
  5
4B0
330
1F
100
AcDbEntity
  8
0
100
AcDbLine
 10
104.1689006561242
 20
150.7898649533148
 30
0.0
 11
104.6987906209328
 21
151.3197549181234
 31
0.0
  0
LINE
  5
4B1
330
1F
100
AcDbEntity
  8
0
100
AcDbLine
 10
105.1970635108436
 20
151.8180278080342
 30
0.0
 11
106.282178852389
 21
152.9031431495796
 31
0.0
  0
LINE
  5
4B2
330
1F
100
AcDbEntity
  8
0
100
AcDbLine
 10
106.7042034923089
 20
153.3251677894995
 30
0.0
 11
107.6646137119058
 21
154.2855780090964
 31
0.0
  0
LINE
  5
4B3
330
1F
100
AcDbEntity
  8
0
100
AcDbLine
 10
104.1608008973827
 20
150.8192418539762
 30
0.0
 11
104.6590302712216
 21
151.3174712278151
 31
0.0
  0
LINE
  5
4B4
330
1F
100
AcDbEntity
  8
0
100
AcDbLine
 10
105.1713293227924
 20
151.8297702793858
 30
0.0
 11
106.2515868810908
 21
152.9100278376843
 31
0.0
  0
LINE
  5
4B5
330
1F
100
AcDbEntity
  8
0
100
AcDbLine
 10
106.6874748781676
 20
153.3459158347611
 30
0.0
 11
107.6392633908337
 21
154.2977043474272
 31
0.0
  0
LINE
  5
4B6
330
1F
100
AcDbEntity
  8
0
100
AcDbLine
 10
104.1530148416002
 20
150.8489324575966
 30
0.0
 11
104.6192699215105
 21
151.3151875375069
 31
0.0
  0
LINE
  5
4B7
330
1F
100
AcDbEntity
  8
0
100
AcDbLine
 10
105.1457254934858
 20
151.8416431094822
 30
0.0
 11
106.2212773413172
 21
152.9171949573136
 31
0.0
  0
LINE
  5
4B8
330
1F
100
AcDbEntity
  8
0
100
AcDbLine
 10
106.6693600627106
 20
153.365277678707
 30
0.0
 11
107.6136424233877
 21
154.3095600393841
 31
0.0
  0
LINE
  5
4B9
330
1F
100
AcDbEntity
  8
0
100
AcDbLine
 10
104.1457041221898
 20
150.879098397589
 30
0.0
 11
104.5795095717994
 21
151.3129038471986
 31
0.0
  0
LINE
  5
4BA
330
1F
100
AcDbEntity
  8
0
100
AcDbLine
 10
105.1204064688973
 20
151.8538007442966
 30
0.0
 11
106.1913534189555
 21
152.9247476943547
 31
0.0
  0
LINE
  5
4BB
330
1F
100
AcDbEntity
  8
0
100
AcDbLine
 10
106.6499517291644
 20
153.3833460045637
 30
0.0
 11
107.5877637259782
 21
154.3211580013775
 31
0.0
  0
LINE
  5
4BC
330
1F
100
AcDbEntity
  8
0
100
AcDbLine
 10
104.138618079253
 20
150.9094890140552
 30
0.0
 11
104.5397492220882
 21
151.3106201568903
 31
0.0
  0
LINE
  5
4BD
330
1F
100
AcDbEntity
  8
0
100
AcDbLine
 10
105.0952973118469
 20
151.8661682466491
 30
0.0
 11
106.1618742010823
 21
152.9327451358844
 31
0.0
  0
LINE
  5
4BE
330
1F
100
AcDbEntity
  8
0
100
AcDbLine
 10
106.6293240087402
 20
153.4001949435423
 30
0.0
 11
107.5613922410049
 21
154.332263175807
 31
0.0
  0
LINE
  5
4BF
330
1F
100
AcDbEntity
  8
0
100
AcDbLine
 10
104.1319224716721
 20
150.9402700658771
 30
0.0
 11
104.4999888723771
 21
151.3083364665821
 31
0.0
  0
LINE
  5
4C0
330
1F
100
AcDbEntity
  8
0
100
AcDbLine
 10
105.0703603579731
 20
151.8787079521781
 30
0.0
 11
106.1329025779418
 21
152.9412501721468
 31
0.0
  0
LINE
  5
4C1
330
1F
100
AcDbEntity
  8
0
100
AcDbLine
 10
106.6076531654832
 20
153.4160007596882
 30
0.0
 11
107.5347603317719
 21
154.3431079259769
 31
0.0
  0
LINE
  5
4C2
330
1F
100
AcDbEntity
  8
0
100
AcDbLine
 10
104.1255825154879
 20
150.9714067690958
 30
0.0
 11
104.4602285226659
 21
151.3060527762738
 31
0.0
  0
LINE
  5
4C3
330
1F
100
AcDbEntity
  8
0
100
AcDbLine
 10
105.045769494816
 20
151.8915937484239
 30
0.0
 11
106.1043964244992
 21
152.9502206781071
 31
0.0
  0
LINE
  5
4C4
330
1F
100
AcDbEntity
  8
0
100
AcDbLine
 10
106.5849739322788
 20
153.4307981858867
 30
0.0
 11
107.5078676030517
 21
154.3536918566596
 31
0.0
  0
LINE
  5
4C5
330
1F
100
AcDbEntity
  8
0
100
AcDbLine
 10
104.1196132229779
 20
151.0029141359886
 30
0.0
 11
104.4204681729548
 21
151.3037690859656
 31
0.0
  0
LINE
  5
4C6
330
1F
100
AcDbEntity
  8
0
100
AcDbLine
 10
105.0213653829316
 20
151.9046662959424
 30
0.0
 11
106.0763775910628
 21
152.9596785040735
 31
0.0
  0
LINE
  5
4C7
330
1F
100
AcDbEntity
  8
0
100
AcDbLine
 10
106.5611671353272
 20
153.4444680483379
 30
0.0
 11
107.4804780459551
 21
154.3637789589659
 31
0.0
  0
LINE
  5
4C8
330
1F
100
AcDbEntity
  8
0
100
AcDbLine
 10
104.1140308009709
 20
151.0348083733846
 30
0.0
 11
104.3807078232436
 21
151.3014853956573
 31
0.0
  0
LINE
  5
4C9
330
1F
100
AcDbEntity
  8
0
100
AcDbLine
 10
104.9971440350209
 20
151.9179216074346
 30
0.0
 11
106.0487675213017
 21
152.9695450937154
 31
0.0
  0
LINE
  5
4CA
330
1F
100
AcDbEntity
  8
0
100
AcDbLine
 10
106.5363379272244
 20
153.4571154996381
 30
0.0
 11
107.4528437408347
 21
154.3736213132484
 31
0.0
  0
LINE
  5
4CB
330
1F
100
AcDbEntity
  8
0
100
AcDbLine
 10
104.1088527673114
 20
151.0671069991279
 30
0.0
 11
104.3409474735325
 21
151.299201705349
 31
0.0
  0
LINE
  5
4CC
330
1F
100
AcDbEntity
  8
0
100
AcDbLine
 10
104.973284233914
 20
151.9315384657305
 30
0.0
 11
106.0217014734092
 21
152.9799557052258
 31
0.0
  0
LINE
  5
4CD
330
1F
100
AcDbEntity
  8
0
100
AcDbLine
 10
106.5104818515797
 20
153.4687360833962
 30
0.0
 11
107.4249341777415
 21
154.3831884095581
 31
0.0
  0
LINE
  5
4CE
330
1F
100
AcDbEntity
  8
0
100
AcDbLine
 10
104.1040960857364
 20
151.0998269769558
 30
0.0
 11
104.3011871238214
 21
151.2969180150408
 31
0.0
  0
LINE
  5
4CF
330
1F
100
AcDbEntity
  8
0
100
AcDbLine
 10
104.9495666035795
 20
151.945297494799
 30
0.0
 11
105.9956603098362
 21
152.9913912010556
 31
0.0
  0
LINE
  5
4D0
330
1F
100
AcDbEntity
  8
0
100
AcDbLine
 10
106.4834664335911
 20
153.4791973248105
 30
0.0
 11
107.3965403203156
 21
154.392271211535
 31
0.0
  0
LINE
  5
4D1
330
1F
100
AcDbEntity
  8
0
100
AcDbLine
 10
104.0997360695222
 20
151.1329436201445
 30
0.0
 11
104.2614267741102
 21
151.2946343247325
 31
0.0
  0
LINE
  5
4D2
330
1F
100
AcDbEntity
  8
0
100
AcDbLine
 10
104.9261515352938
 20
151.9593590859161
 30
0.0
 11
105.9709750996224
 21
153.0041826502447
 31
0.0
  0
LINE
  5
4D3
330
1F
100
AcDbEntity
  8
0
100
AcDbLine
 10
106.4551455974128
 20
153.4883531480351
 30
0.0
 11
107.3679250132758
 21
154.4011325638981
 31
0.0
  0
LINE
  5
4D4
330
1F
100
AcDbEntity
  8
0
100
AcDbLine
 10
104.0957211671745
 20
151.1664053771997
 30
0.0
 11
104.2216664243991
 21
151.2923506344243
 31
0.0
  0
LINE
  5
4D5
330
1F
100
AcDbEntity
  8
0
100
AcDbLine
 10
104.9030191619215
 20
151.9737033719467
 30
0.0
 11
105.9478523246447
 21
153.0185365346699
 31
0.0
  0
LINE
  5
4D6
330
1F
100
AcDbEntity
  8
0
100
AcDbLine
 10
106.4256161016795
 20
153.4963003117047
 30
0.0
 11
107.3390036367738
 21
154.409687846799
 31
0.0
  0
LINE
  5
4D7
330
1F
100
AcDbEntity
  8
0
100
AcDbLine
 10
104.0919812977894
 20
151.2001421672175
 30
0.0
 11
104.1819060746879
 21
151.290066944116
 31
0.0
  0
LINE
  5
4D8
330
1F
100
AcDbEntity
  8
0
100
AcDbLine
 10
104.8801948143398
 20
151.9883556837679
 30
0.0
 11
105.925977624888
 21
153.0341384943161
 31
0.0
  0
LINE
  5
4D9
330
1F
100
AcDbEntity
  8
0
100
AcDbLine
 10
106.3947964674681
 20
153.5029573368962
 30
0.0
 11
107.3096691676332
 21
154.4178300370613
 31
0.0
  0
LINE
  5
4DA
330
1F
100
AcDbEntity
  8
0
100
AcDbLine
 10
104.088441227768
 20
151.234078756599
 30
0.0
 11
104.1421457249768
 21
151.2877832538078
 31
0.0
  0
LINE
  5
4DB
330
1F
100
AcDbEntity
  8
0
100
AcDbLine
 10
104.8577033812365
 20
152.0033409100674
 30
0.0
 11
105.9047151560318
 21
153.0503526848628
 31
0.0
  0
LINE
  5
4DC
330
1F
100
AcDbEntity
  8
0
100
AcDbLine
 10
106.3625690491111
 20
153.5082065779421
 30
0.0
 11
107.2801109245669
 21
154.4257484533979
 31
0.0
  0
LINE
  5
4DD
330
1F
100
AcDbEntity
  8
0
100
AcDbLine
 10
104.0850218922198
 20
151.2681360804537
 30
0.0
 11
104.1023853752656
 21
151.2854995634995
 31
0.0
  0
LINE
  5
4DE
330
1F
100
AcDbEntity
  8
0
100
AcDbLine
 10
104.8355693254901
 20
152.018683513724
 30
0.0
 11
105.8867182464169
 21
153.0698324346507
 31
0.0
  0
LINE
  5
4DF
330
1F
100
AcDbEntity
  8
0
100
AcDbLine
 10
106.3291239624391
 20
153.5122381506729
 30
0.0
 11
107.2502360901094
 21
154.4333502783433
 31
0.0
  0
LINE
  5
4E0
330
1F
100
AcDbEntity
  8
0
100
AcDbLine
 10
104.8138000458238
 20
152.0343908934605
 30
0.0
 11
105.8718007620432
 21
153.09239160968
 31
0.0
  0
LINE
  5
4E1
330
1F
100
AcDbEntity
  8
0
100
AcDbLine
 10
106.2945252715411
 20
153.5151161191779
 30
0.0
 11
107.2199835905368
 21
154.4405744381735
 31
0.0
  0
LINE
  5
4E2
330
1F
100
AcDbEntity
  8
0
100
AcDbLine
 10
104.7923782612583
 20
152.050445768298
 30
0.0
 11
105.8607905459645
 21
153.1188580530041
 31
0.0
  0
LINE
  5
4E3
330
1F
100
AcDbEntity
  8
0
100
AcDbLine
 10
106.2590334393111
 20
153.5171009463507
 30
0.0
 11
107.1895406776597
 21
154.4476081846993
 31
0.0
  0
LINE
  5
4E4
330
1F
100
AcDbEntity
  8
0
100
AcDbLine
 10
104.7712318733557
 20
152.0667760397982
 30
0.0
 11
105.8526151214298
 21
153.1481592878723
 31
0.0
  0
LINE
  5
4E5
330
1F
100
AcDbEntity
  8
0
100
AcDbLine
 10
106.2231002455089
 20
153.5186444119514
 30
0.0
 11
107.1587237864966
 21
154.4542679529391
 31
0.0
  0
LINE
  5
4E6
330
1F
100
AcDbEntity
  8
0
100
AcDbLine
 10
102.6366972442314
 20
149.9697180700768
 30
0.0
 11
103.0579423089969
 21
150.3909631348423
 31
0.0
  0
LINE
  5
4E7
330
1F
100
AcDbEntity
  8
0
100
AcDbLine
 10
104.7502904140893
 20
152.0833112399347
 30
0.0
 11
105.8480558292726
 21
153.181076655118
 31
0.0
  0
LINE
  5
4E8
330
1F
100
AcDbEntity
  8
0
100
AcDbLine
 10
106.1847526094188
 20
153.5177734352642
 30
0.0
 11
107.1276033779719
 21
154.4606242038173
 31
0.0
  0
LINE
  5
4E9
330
1F
100
AcDbEntity
  8
0
100
AcDbLine
 10
102.5135649047648
 20
149.884062390013
 30
0.0
 11
103.1406196770486
 21
150.5111171622969
 31
0.0
  0
LINE
  5
4EA
330
1F
100
AcDbEntity
  8
0
100
AcDbLine
 10
104.7294860317435
 20
152.0999835169918
 30
0.0
 11
105.846857135942
 21
153.2173546211903
 31
0.0
  0
LINE
  5
4EB
330
1F
100
AcDbEntity
  8
0
100
AcDbLine
 10
106.1446026272945
 20
153.5151001125427
 30
0.0
 11
107.0962733355247
 21
154.466770820773
 31
0.0
  0
LINE
  5
4EC
330
1F
100
AcDbEntity
  8
0
100
AcDbLine
 10
102.4150585927425
 20
149.8230327373936
 30
0.0
 11
103.1968661223365
 21
150.6048402669877
 31
0.0
  0
LINE
  5
4ED
330
1F
100
AcDbEntity
  8
0
100
AcDbLine
 10
104.7088613844567
 20
152.1168355291078
 30
0.0
 11
105.8496207328613
 21
153.2575948775124
 31
0.0
  0
LINE
  5
4EE
330
1F
100
AcDbEntity
  8
0
100
AcDbLine
 10
106.1007460047032
 20
153.5087201493544
 30
0.0
 11
107.0645051091728
 21
154.472479253824
 31
0.0
  0
LINE
  5
4EF
330
1F
100
AcDbEntity
  8
0
100
AcDbLine
 10
102.3311230503475
 20
149.7765738544016
 30
0.0
 11
103.2400949239037
 21
150.6855457279577
 31
0.0
  0
LINE
  5
4F0
330
1F
100
AcDbEntity
  8
0
100
AcDbLine
 10
104.6891386809307
 20
152.1345894849847
 30
0.0
 11
105.8577593541519
 21
153.3032101582059
 31
0.0
  0
LINE
  5
4F1
330
1F
100
AcDbEntity
  8
0
100
AcDbLine
 10
106.0501195134795
 20
153.4955703175335
 30
0.0
 11
107.0324756386529
 21
154.4779264427069
 31
0.0
  0
LINE
  5
4F2
330
1F
100
AcDbEntity
  8
0
100
AcDbLine
 10
102.256250260116
 20
149.7391777235729
 30
0.0
 11
103.275152994513
 21
150.75808045797
 31
0.0
  0
LINE
  5
4F3
330
1F
100
AcDbEntity
  8
0
100
AcDbLine
 10
104.6695207200829
 20
152.1524481835398
 30
0.0
 11
105.8823803861875
 21
153.3653078496445
 31
0.0
  0
LINE
  5
4F4
330
1F
100
AcDbEntity
  8
0
100
AcDbLine
 10
105.9840675189583
 20
153.4669949824152
 30
0.0
 11
107.0002209543574
 21
154.4831484178143
 31
0.0
  0
LINE
  5
4F5
330
1F
100
AcDbEntity
  8
0
100
AcDbLine
 10
102.1874861761986
 20
149.7078902990584
 30
0.0
 11
103.3047074228984
 21
150.8251115457582
 31
0.0
  0
LINE
  5
4F6
330
1F
100
AcDbEntity
  8
0
100
AcDbLine
 10
104.6501156296945
 20
152.1705197525544
 30
0.0
 11
106.9675131435247
 21
154.4879172663845
 31
0.0
  0
LINE
  5
4F7
330
1F
100
AcDbEntity
  8
0
100
AcDbLine
 10
102.1231522059796
 20
149.6810329882423
 30
0.0
 11
103.3302923166889
 21
150.8881730989516
 31
0.0
  0
LINE
  5
4F8
330
1F
100
AcDbEntity
  8
0
100
AcDbLine
 10
104.6310126509912
 20
152.1888934332538
 30
0.0
 11
106.93460994916
 21
154.4924907314227
 31
0.0
  0
LINE
  5
4F9
330
1F
100
AcDbEntity
  8
0
100
AcDbLine
 10
102.0627290177636
 20
149.6580864594291
 30
0.0
 11
103.352456585429
 21
150.9478140270946
 31
0.0
  0
LINE
  5
4FA
330
1F
100
AcDbEntity
  8
0
100
AcDbLine
 10
104.6123058797992
 20
152.2076633214648
 30
0.0
 11
106.901390771965
 21
154.4967482136306
 31
0.0
  0
LINE
  5
4FB
330
1F
100
AcDbEntity
  8
0
100
AcDbLine
 10
102.0049160947615
 20
149.6377501958299
 30
0.0
 11
103.3717407516501
 21
151.0045748527186
 31
0.0
  0
LINE
  5
4FC
330
1F
100
AcDbEntity
  8
0
100
AcDbLine
 10
104.5940634284399
 20
152.2268975295083
 30
0.0
 11
106.8678205270234
 21
154.5006546280919
 31
0.0
  0
LINE
  5
4FD
330
1F
100
AcDbEntity
  8
0
100
AcDbLine
 10
101.9497479450332
 20
149.6200587055046
 30
0.0
 11
103.3886672129838
 21
151.0589779734551
 31
0.0
  0
LINE
  5
4FE
330
1F
100
AcDbEntity
  8
0
100
AcDbLine
 10
104.5763021842604
 20
152.2466129447317
 30
0.0
 11
106.8340611668368
 21
154.5043719273081
 31
0.0
  0
LINE
  5
4FF
330
1F
100
AcDbEntity
  8
0
100
AcDbLine
 10
101.8964633161752
 20
149.6042507360494
 30
0.0
 11
103.4037952290389
 21
151.1115826489132
 31
0.0
  0
LINE
  5
500
330
1F
100
AcDbEntity
  8
0
100
AcDbLine
 10
104.5589920738912
 20
152.2667794937655
 30
0.0
 11
106.7999608120465
 21
154.5077482319207
 31
0.0
  0
LINE
  5
501
330
1F
100
AcDbEntity
  8
0
100
AcDbLine
 10
101.8448098158802
 20
149.5900738951573
 30
0.0
 11
103.4171984107698
 21
151.1624624900469
 31
0.0
  0
LINE
  5
502
330
1F
100
AcDbEntity
  8
0
100
AcDbLine
 10
104.5421001812322
 20
152.2873642605093
 30
0.0
 11
106.7655683132807
 21
154.5108323925578
 31
0.0
  0
LINE
  5
503
330
1F
100
AcDbEntity
  8
0
100
AcDbLine
 10
101.7946313946156
 20
149.5773721332956
 30
0.0
 11
103.4292283815558
 21
151.2119691202358
 31
0.0
  0
LINE
  5
504
330
1F
100
AcDbEntity
  8
0
100
AcDbLine
 10
104.5255940854205
 20
152.3083348241005
 30
0.0
 11
106.7308713844612
 21
154.5136121231412
 31
0.0
  0
LINE
  5
505
330
1F
100
AcDbEntity
  8
0
100
AcDbLine
 10
101.7458647806587
 20
149.5660821787415
 30
0.0
 11
103.4400981255802
 21
151.2603155236631
 31
0.0
  0
LINE
  5
506
330
1F
100
AcDbEntity
  8
0
100
AcDbLine
 10
104.5094750467761
 20
152.329692444859
 30
0.0
 11
106.6958582666996
 21
154.5160756647825
 31
0.0
  0
LINE
  5
507
330
1F
100
AcDbEntity
  8
0
100
AcDbLine
 10
101.6982155051987
 20
149.5559095626845
 30
0.0
 11
103.4499265687116
 21
151.3076206261974
 31
0.0
  0
LINE
  5
508
330
1F
100
AcDbEntity
  8
0
100
AcDbLine
 10
104.4936843844179
 20
152.3513784419036
 30
0.0
 11
106.6605380717835
 21
154.5182321292693
 31
0.0
  0
LINE
  5
509
330
1F
100
AcDbEntity
  8
0
100
AcDbLine
 10
101.6515940224491
 20
149.5467647393377
 30
0.0
 11
103.4588230859779
 21
151.3539938028665
 31
0.0
  0
LINE
  5
50A
330
1F
100
AcDbEntity
  8
0
100
AcDbLine
 10
104.4782606015784
 20
152.3734313184671
 30
0.0
 11
106.6249045834097
 21
154.5200753002984
 31
0.0
  0
LINE
  5
50B
330
1F
100
AcDbEntity
  8
0
100
AcDbLine
 10
101.6059083413864
 20
149.538555717678
 30
0.0
 11
103.4668591648853
 21
151.3995065411768
 31
0.0
  0
LINE
  5
50C
330
1F
100
AcDbEntity
  8
0
100
AcDbLine
 10
104.4633169988685
 20
152.39596437516
 30
0.0
 11
106.5889503970541
 21
154.5215977733457
 31
0.0
  0
LINE
  5
50D
330
1F
100
AcDbEntity
  8
0
100
AcDbLine
 10
101.5610816814201
 20
149.5312057171145
 30
0.0
 11
103.4741028783184
 21
151.4442269140128
 31
0.0
  0
LINE
  5
50E
330
1F
100
AcDbEntity
  8
0
100
AcDbLine
 10
104.4488845917989
 20
152.4190086274934
 30
0.0
 11
106.5527186815862
 21
154.5228427172806
 31
0.0
  0
LINE
  5
50F
330
1F
100
AcDbEntity
  8
0
100
AcDbLine
 10
101.5170206020473
 20
149.5246212971446
 30
0.0
 11
103.4806016861264
 21
151.4882023812237
 31
0.0
  0
LINE
  5
510
330
1F
100
AcDbEntity
  8
0
100
AcDbLine
 10
104.4349302421495
 20
152.4425309372468
 30
0.0
 11
106.5162491544214
 21
154.5238498495187
 31
0.0
  0
LINE
  5
511
330
1F
100
AcDbEntity
  8
0
100
AcDbLine
 10
101.4736617524701
 20
149.5187391069703
 30
0.0
 11
103.486419977803
 21
151.5314973323032
 31
0.0
  0
LINE
  5
512
330
1F
100
AcDbEntity
  8
0
100
AcDbLine
 10
104.4214710453457
 20
152.4665483998459
 30
0.0
 11
106.4795884944491
 21
154.5246658489493
 31
0.0
  0
LINE
  5
513
330
1F
100
AcDbEntity
  8
0
100
AcDbLine
 10
101.430937593311
 20
149.513491607214
 30
0.0
 11
103.4915896095828
 21
151.5741436234859
 31
0.0
  0
LINE
  5
514
330
1F
100
AcDbEntity
  8
0
100
AcDbLine
 10
104.4084980796923
 20
152.4910520935954
 30
0.0
 11
106.4427863181586
 21
154.5253403320617
 31
0.0
  0
LINE
  5
515
330
1F
100
AcDbEntity
  8
0
100
AcDbLine
 10
101.3888343525664
 20
149.5088650258724
 30
0.0
 11
103.4961441043312
 21
151.6161747776371
 31
0.0
  0
LINE
  5
516
330
1F
100
AcDbEntity
  8
0
100
AcDbLine
 10
104.3959980742723
 20
152.5160287475782
 30
0.0
 11
106.4058944407279
 21
154.5259251140338
 31
0.0
  0
LINE
  5
517
330
1F
100
AcDbEntity
  8
0
100
AcDbLine
 10
101.3472611886883
 20
149.5047685213971
 30
0.0
 11
103.5001464481189
 21
151.6576537808277
 31
0.0
  0
LINE
  5
518
330
1F
100
AcDbEntity
  8
0
100
AcDbLine
 10
104.3840222976863
 20
152.5415296303952
 30
0.0
 11
106.368652818062
 21
154.5261601507709
 31
0.0
  0
LINE
  5
519
330
1F
100
AcDbEntity
  8
0
100
AcDbLine
 10
101.3062287612697
 20
149.5012127533814
 30
0.0
 11
103.5035497846522
 21
151.6985337767639
 31
0.0
  0
LINE
  5
51A
330
1F
100
AcDbEntity
  8
0
100
AcDbLine
 10
104.3725104080809
 20
152.5674944001927
 30
0.0
 11
106.3307970006887
 21
154.5257809928005
 31
0.0
  0
LINE
  5
51B
330
1F
100
AcDbEntity
  8
0
100
AcDbLine
 10
101.2656994945782
 20
149.4981601460928
 30
0.0
 11
103.5064598323743
 21
151.7389204838889
 31
0.0
  0
LINE
  5
51C
330
1F
100
AcDbEntity
  8
0
100
AcDbLine
 10
104.3614678484741
 20
152.5939284999887
 30
0.0
 11
106.2928612128292
 21
154.5253218643439
 31
0.0
  0
LINE
  5
51D
330
1F
100
AcDbEntity
  8
0
100
AcDbLine
 10
101.2256740538789
 20
149.4956113647964
 30
0.0
 11
103.5088723773016
 21
151.7788096882191
 31
0.0
  0
LINE
  5
51E
330
1F
100
AcDbEntity
  8
0
100
AcDbLine
 10
104.3509346611393
 20
152.6208719720568
 30
0.0
 11
106.2547733292597
 21
154.5247106401772
 31
0.0
  0
LINE
  5
51F
330
1F
100
AcDbEntity
  8
0
100
AcDbLine
 10
101.1861918099109
 20
149.4936057802313
 30
0.0
 11
103.5108445401047
 21
151.8182585104251
 31
0.0
  0
LINE
  5
520
330
1F
100
AcDbEntity
  8
0
100
AcDbLine
 10
104.3409580817169
 20
152.6483720520373
 30
0.0
 11
106.2164551787394
 21
154.5238691490597
 31
0.0
  0
LINE
  5
521
330
1F
100
AcDbEntity
  8
0
100
AcDbLine
 10
101.147208448678
 20
149.4920990784013
 30
0.0
 11
103.5124335225625
 21
151.8573241522857
 31
0.0
  0
LINE
  5
522
330
1F
100
AcDbEntity
  8
0
100
AcDbLine
 10
104.3315903126059
 20
152.6764809423291
 30
0.0
 11
106.1778617290124
 21
154.5227523587357
 31
0.0
  0
LINE
  5
523
330
1F
100
AcDbEntity
  8
0
100
AcDbLine
 10
101.1086071874972
 20
149.4909744766233
 30
0.0
 11
103.5136937136239
 21
151.89606100275
 31
0.0
  0
LINE
  5
524
330
1F
100
AcDbEntity
  8
0
100
AcDbLine
 10
104.3228566645712
 20
152.7052239536974
 30
0.0
 11
106.1389437439115
 21
154.5213110330376
 31
0.0
  0
LINE
  5
525
330
1F
100
AcDbEntity
  8
0
100
AcDbLine
 10
101.0702914897524
 20
149.4901354382814
 30
0.0
 11
103.5146915868718
 21
151.9345355354008
 31
0.0
  0
LINE
  5
526
330
1F
100
AcDbEntity
  8
0
100
AcDbLine
 10
104.3147691827335
 20
152.7346131312625
 30
0.0
 11
106.099609099122
 21
154.5194530476511
 31
0.0
  0
LINE
  5
527
330
1F
100
AcDbEntity
  8
0
100
AcDbLine
 10
101.032170655949
 20
149.4894912638809
 30
0.0
 11
103.5154969096412
 21
151.9728175175731
 31
0.0
  0
LINE
  5
528
330
1F
100
AcDbEntity
  8
0
100
AcDbLine
 10
104.3073405638431
 20
152.764661171775
 30
0.0
 11
106.0598617327662
 21
154.5171823406981
 31
0.0
  0
LINE
  5
529
330
1F
100
AcDbEntity
  8
0
100
AcDbLine
 10
100.9941579331793
 20
149.4889552005141
 30
0.0
 11
103.5161737795915
 21
152.0109710469263
 31
0.0
  0
LINE
  5
52A
330
1F
100
AcDbEntity
  8
0
100
AcDbLine
 10
104.300570761241
 20
152.7953680285758
 30
0.0
 11
106.0196799853724
 21
154.5144772527072
 31
0.0
  0
LINE
  5
52B
330
1F
100
AcDbEntity
  8
0
100
AcDbLine
 10
100.956830475122
 20
149.4891044018597
 30
0.0
 11
103.5165585031559
 21
152.0488324298936
 31
0.0
  0
LINE
  5
52C
330
1F
100
AcDbEntity
  8
0
100
AcDbLine
 10
104.2943760179003
 20
152.8266499446379
 30
0.0
 11
105.9789582827949
 21
154.5112322095326
 31
0.0
  0
LINE
  5
52D
330
1F
100
AcDbEntity
  8
0
100
AcDbLine
 10
100.9197624140211
 20
149.4895130001617
 30
0.0
 11
103.5157006448195
 21
152.0854512309601
 31
0.0
  0
LINE
  5
52E
330
1F
100
AcDbEntity
  8
0
100
AcDbLine
 10
104.2889114618909
 20
152.8586620480315
 30
0.0
 11
105.9377592709269
 21
154.5075098570675
 31
0.0
  0
LINE
  5
52F
330
1F
100
AcDbEntity
  8
0
100
AcDbLine
 10
100.8828341032092
 20
149.4900613487527
 30
0.0
 11
103.5147609343931
 21
152.1219881799366
 31
0.0
  0
LINE
  5
530
330
1F
100
AcDbEntity
  8
0
100
AcDbLine
 10
104.2841858683923
 20
152.8914131139357
 30
0.0
 11
105.89612590135
 21
154.5033531468935
 31
0.0
  0
LINE
  5
531
330
1F
100
AcDbEntity
  8
0
100
AcDbLine
 10
100.8461239175286
 20
149.490827822475
 30
0.0
 11
103.5136994304436
 21
152.1584033353899
 31
0.0
  0
LINE
  5
532
330
1F
100
AcDbEntity
  8
0
100
AcDbLine
 10
104.2802820633367
 20
152.924985968283
 30
0.0
 11
105.854107499059
 21
154.4988114040054
 31
0.0
  0
LINE
  5
533
330
1F
100
AcDbEntity
  8
0
100
AcDbLine
 10
100.8096947739672
 20
149.4918753383164
 30
0.0
 11
103.5124784795693
 21
152.1946590439185
 31
0.0
  0
LINE
  5
534
330
1F
100
AcDbEntity
  8
0
100
AcDbLine
 10
104.2772814123362
 20
152.9594619766854
 30
0.0
 11
105.8117104760131
 21
154.4938910403624
 31
0.0
  0
LINE
  5
535
330
1F
100
AcDbEntity
  8
0
100
AcDbLine
 10
100.7736036582801
 20
149.4932608820322
 30
0.0
 11
103.5110635424532
 21
152.2307207662053
 31
0.0
  0
LINE
  5
536
330
1F
100
AcDbEntity
  8
0
100
AcDbLine
 10
104.2751542593611
 20
152.9948114831132
 30
0.0
 11
105.7688054941291
 21
154.4884627178812
 31
0.0
  0
LINE
  5
537
330
1F
100
AcDbEntity
  8
0
100
AcDbLine
 10
100.7378805603492
 20
149.4950144435042
 30
0.0
 11
103.509297712783
 21
152.266431595938
 31
0.0
  0
LINE
  5
538
330
1F
100
AcDbEntity
  8
0
100
AcDbLine
 10
104.2737061291767
 20
153.0308400123317
 30
0.0
 11
105.7252137861439
 21
154.4823476692989
 31
0.0
  0
LINE
  5
539
330
1F
100
AcDbEntity
  8
0
100
AcDbLine
 10
100.7024984280637
 20
149.4971089706215
 30
0.0
 11
103.5072197905957
 21
152.3018303331536
 31
0.0
  0
LINE
  5
53A
330
1F
100
AcDbEntity
  8
0
100
AcDbLine
 10
104.27260978307
 20
153.0672203256279
 30
0.0
 11
105.680745927667
 21
154.4753564702249
 31
0.0
  0
LINE
  5
53B
330
1F
100
AcDbEntity
  8
0
100
AcDbLine
 10
100.6674290878735
 20
149.4995162898342
 30
0.0
 11
103.5048263823733
 21
152.3369135843341
 31
0.0
  0
LINE
  5
53C
330
1F
100
AcDbEntity
  8
0
100
AcDbLine
 10
104.2734132582145
 20
153.1055004601753
 30
0.0
 11
105.6352860131709
 21
154.4673732151317
 31
0.0
  0
LINE
  5
53D
330
1F
100
AcDbEntity
  8
0
100
AcDbLine
 10
100.6326461558532
 20
149.5022100172168
 30
0.0
 11
103.502082394299
 21
152.3716462556626
 31
0.0
  0
LINE
  5
53E
330
1F
100
AcDbEntity
  8
0
100
AcDbLine
 10
104.275216092549
 20
153.1447799539126
 30
0.0
 11
105.5889021037568
 21
154.4584659651204
 31
0.0
  0
LINE
  5
53F
330
1F
100
AcDbEntity
  8
0
100
AcDbLine
 10
100.5981248359761
 20
149.5051653567426
 30
0.0
 11
103.4989152748368
 21
152.4059557956033
 31
0.0
  0
LINE
  5
540
330
1F
100
AcDbEntity
  8
0
100
AcDbLine
 10
104.2776731491924
 20
153.184713669959
 30
0.0
 11
105.5415797778094
 21
154.4486202985759
 31
0.0
  0
LINE
  5
541
330
1F
100
AcDbEntity
  8
0
100
AcDbLine
 10
100.5638894379934
 20
149.5084066181628
 30
0.0
 11
103.4953682329184
 21
152.4398854130878
 31
0.0
  0
LINE
  5
542
330
1F
100
AcDbEntity
  8
0
100
AcDbLine
 10
104.2811481695604
 20
153.2256653497298
 30
0.0
 11
105.4933907239118
 21
154.4379079040812
 31
0.0
  0
LINE
  5
543
330
1F
100
AcDbEntity
  8
0
100
AcDbLine
 10
100.5298664409987
 20
149.511860280571
 30
0.0
 11
103.4915061723068
 21
152.4735000118791
 31
0.0
  0
LINE
  5
544
330
1F
100
AcDbEntity
  8
0
100
AcDbLine
 10
104.2861200827372
 20
153.2681139223095
 30
0.0
 11
105.4440006935739
 21
154.4259945331462
 31
0.0
  0
LINE
  5
545
330
1F
100
AcDbEntity
  8
0
100
AcDbLine
 10
100.4960635769308
 20
149.515534075906
 30
0.0
 11
103.4873401049848
 21
152.50681060396
 31
0.0
  0
LINE
  5
546
330
1F
100
AcDbEntity
  8
0
100
AcDbLine
 10
104.2936301570744
 20
153.3131006560496
 30
0.0
 11
105.3927176187389
 21
154.412188117714
 31
0.0
  0
LINE
  5
547
330
1F
100
AcDbEntity
  8
0
100
AcDbLine
 10
100.4625523097311
 20
149.5194994681092
 30
0.0
 11
103.4828121070621
 21
152.5397592654401
 31
0.0
  0
LINE
  5
548
330
1F
100
AcDbEntity
  8
0
100
AcDbLine
 10
104.3035229460945
 20
153.3604701044726
 30
0.0
 11
105.339154466451
 21
154.396101624829
 31
0.0
  0
LINE
  5
549
330
1F
100
AcDbEntity
  8
0
100
AcDbLine
 10
100.429343531648
 20
149.5237673494289
 30
0.0
 11
103.4779190395654
 21
152.5723428573463
 31
0.0
  0
LINE
  5
54A
330
1F
100
AcDbEntity
  8
0
100
AcDbLine
 10
104.3166381861639
 20
153.4110620039448
 30
0.0
 11
105.2829316929547
 21
154.3773555107357
 31
0.0
  0
LINE
  5
54B
330
1F
100
AcDbEntity
  8
0
100
AcDbLine
 10
100.3963692665296
 20
149.5282697437135
 30
0.0
 11
103.4727340351166
 21
152.6046345123004
 31
0.0
  0
LINE
  5
54C
330
1F
100
AcDbEntity
  8
0
100
AcDbLine
 10
104.332994831156
 20
153.4648953083399
 30
0.0
 11
105.2234201285677
 21
154.3553206057515
 31
0.0
  0
LINE
  5
54D
330
1F
100
AcDbEntity
  8
0
100
AcDbLine
 10
100.3636468173557
 20
149.5330239539424
 30
0.0
 11
103.4673132361494
 21
152.6366903727361
 31
0.0
  0
LINE
  5
54E
330
1F
100
AcDbEntity
  8
0
100
AcDbLine
 10
104.3529702384548
 20
153.5223473750415
 30
0.0
 11
105.1597999174019
 21
154.3291770539886
 31
0.0
  0
LINE
  5
54F
330
1F
100
AcDbEntity
  8
0
100
AcDbLine
 10
100.3312581616443
 20
149.5381119576339
 30
0.0
 11
103.4614392646595
 21
152.6682930606491
 31
0.0
  0
LINE
  5
550
330
1F
100
AcDbEntity
  8
0
100
AcDbLine
 10
104.3784948033223
 20
153.5853485993119
 30
0.0
 11
105.0909084248644
 21
154.297762220854
 31
0.0
  0
LINE
  5
551
330
1F
100
AcDbEntity
  8
0
100
AcDbLine
 10
100.2991484457421
 20
149.5434789011346
 30
0.0
 11
103.4553614271299
 21
152.6996918825224
 31
0.0
  0
LINE
  5
552
330
1F
100
AcDbEntity
  8
0
100
AcDbLine
 10
104.4116477274235
 20
153.655978182816
 30
0.0
 11
105.0144847131364
 21
154.2588151685289
 31
0.0
  0
LINE
  5
553
330
1F
100
AcDbEntity
  8
0
100
AcDbLine
 10
100.2672747663757
 20
149.5490818811711
 30
0.0
 11
103.4489343965232
 21
152.7307415113186
 31
0.0
  0
LINE
  5
554
330
1F
100
AcDbEntity
  8
0
100
AcDbLine
 10
104.4576529776478
 20
153.7394600924432
 30
0.0
 11
104.9251151738432
 21
154.2069222886386
 31
0.0
  0
LINE
  5
555
330
1F
100
AcDbEntity
  8
0
100
AcDbLine
 10
100.2356318341185
 20
149.5549156083167
 30
0.0
 11
103.4421476167751
 21
152.7614313909734
 31
0.0
  0
LINE
  5
556
330
1F
100
AcDbEntity
  8
0
100
AcDbLine
 10
104.5313347007424
 20
153.8506184749407
 30
0.0
 11
104.8072380427352
 21
154.1265218169334
 31
0.0
  0
LINE
  5
557
330
1F
100
AcDbEntity
  8
0
100
AcDbLine
 10
100.2043407673459
 20
149.5611012009471
 30
0.0
 11
103.4351727052316
 21
152.7919331388328
 31
0.0
  0
LINE
  5
558
330
1F
100
AcDbEntity
  8
0
100
AcDbLine
 10
100.1733085314729
 20
149.5675456244769
 30
0.0
 11
103.4277029007514
 21
152.8219399937554
 31
0.0
  0
LINE
  5
559
330
1F
100
AcDbEntity
  8
0
100
AcDbLine
 10
100.1425278331894
 20
149.5742415855963
 30
0.0
 11
101.4362939741189
 21
150.8680077265258
 31
0.0
  0
LINE
  5
55A
330
1F
100
AcDbEntity
  8
0
100
AcDbLine
 10
101.7120622641512
 20
151.1437760165581
 30
0.0
 11
103.4200251394565
 21
152.8517388918634
 31
0.0
  0
LINE
  5
55B
330
1F
100
AcDbEntity
  8
0
100
AcDbLine
 10
100.1119996394569
 20
149.5811900512667
 30
0.0
 11
101.3606925074244
 21
150.8298829192342
 31
0.0
  0
LINE
  5
55C
330
1F
100
AcDbEntity
  8
0
100
AcDbLine
 10
101.7480921946366
 20
151.2172826064464
 30
0.0
 11
103.4120365406509
 21
152.8812269524607
 31
0.0
  0
LINE
  5
55D
330
1F
100
AcDbEntity
  8
0
100
AcDbLine
 10
100.0818749417021
 20
149.5885420129148
 30
0.0
 11
101.2978583936675
 21
150.8045254648801
 31
0.0
  0
LINE
  5
55E
330
1F
100
AcDbEntity
  8
0
100
AcDbLine
 10
101.7732714154762
 20
151.2799384866888
 30
0.0
 11
103.4036591709623
 21
152.9103262421749
 31
0.0
  0
LINE
  5
55F
330
1F
100
AcDbEntity
  8
0
100
AcDbLine
 10
100.0520165652258
 20
149.5961602958413
 30
0.0
 11
101.2424939571663
 21
150.7866376877818
 31
0.0
  0
LINE
  5
560
330
1F
100
AcDbEntity
  8
0
100
AcDbLine
 10
101.792151522838
 20
151.3362952534536
 30
0.0
 11
103.3951028709471
 21
152.9392466015627
 31
0.0
  0
LINE
  5
561
330
1F
100
AcDbEntity
  8
0
100
AcDbLine
 10
100.0224305859559
 20
149.6040509759744
 30
0.0
 11
101.1927954387828
 21
150.7744158288012
 31
0.0
  0
LINE
  5
562
330
1F
100
AcDbEntity
  8
0
100
AcDbLine
 10
101.8070544327653
 20
151.3886748227837
 30
0.0
 11
103.3861444320709
 21
152.9677648220894
 31
0.0
  0
LINE
  5
563
330
1F
100
AcDbEntity
  8
0
100
AcDbLine
 10
99.99312274680521
 20
149.6122197962266
 30
0.0
 11
101.1462589132624
 21
150.7653559626838
 31
0.0
  0
LINE
  5
564
330
1F
100
AcDbEntity
  8
0
100
AcDbLine
 10
101.8195120068945
 20
151.4386090563158
 30
0.0
 11
103.376953853602
 21
152.9960509030234
 31
0.0
  0
LINE
  5
565
330
1F
100
AcDbEntity
  8
0
100
AcDbLine
 10
99.96419775320923
 20
149.6207714620334
 30
0.0
 11
101.1017621673366
 21
150.7583358761608
 31
0.0
  0
LINE
  5
566
330
1F
100
AcDbEntity
  8
0
100
AcDbLine
 10
101.8301180769247
 20
151.4866917857489
 30
0.0
 11
103.3675361610417
 21
153.0241098698659
 31
0.0
  0
LINE
  5
567
330
1F
100
AcDbEntity
  8
0
100
AcDbLine
 10
99.93552376148537
 20
149.6295741297125
 30
0.0
 11
101.0592872295136
 21
150.7533375977407
 31
0.0
  0
LINE
  5
568
330
1F
100
AcDbEntity
  8
0
100
AcDbLine
 10
101.8392199055038
 20
151.5332702737309
 30
0.0
 11
103.3577459953772
 21
153.0517963636043
 31
0.0
  0
LINE
  5
569
330
1F
100
AcDbEntity
  8
0
100
AcDbLine
 10
99.90709330782887
 20
149.6386203354589
 30
0.0
 11
101.018877291913
 21
150.750404319543
 31
0.0
  0
LINE
  5
56A
330
1F
100
AcDbEntity
  8
0
100
AcDbLine
 10
101.8466406961061
 20
151.578167723736
 30
0.0
 11
103.3478171997176
 21
153.0793442273476
 31
0.0
  0
LINE
  5
56B
330
1F
100
AcDbEntity
  8
0
100
AcDbLine
 10
99.87895288890356
 20
149.6479565759364
 30
0.0
 11
100.9799532730976
 21
150.7489569601305
 31
0.0
  0
LINE
  5
56C
330
1F
100
AcDbEntity
  8
0
100
AcDbLine
 10
101.8528425740425
 20
151.6218462610754
 30
0.0
 11
103.3375280378968
 21
153.1065317249297
 31
0.0
  0
LINE
  5
56D
330
1F
100
AcDbEntity
  8
0
100
AcDbLine
 10
99.8511592681657
 20
149.6576396146014
 30
0.0
 11
100.9417890371189
 21
150.7482693835547
 31
0.0
  0
LINE
  5
56E
330
1F
100
AcDbEntity
  8
0
100
AcDbLine
 10
101.8580468672869
 20
151.6645272137227
 30
0.0
 11
103.3270157202437
 21
153.1334960666795
 31
0.0
  0
LINE
  5
56F
330
1F
100
AcDbEntity
  8
0
100
AcDbLine
 10
99.82362489953735
 20
149.667581905376
 30
0.0
 11
100.9048943609933
 21
150.7488513668319
 31
0.0
  0
LINE
  5
570
330
1F
100
AcDbEntity
  8
0
100
AcDbLine
 10
101.8624891545253
 20
151.7064461603639
 30
0.0
 11
103.3162937261606
 21
153.1602507319992
 31
0.0
  0
LINE
  5
571
330
1F
100
AcDbEntity
  8
0
100
AcDbLine
 10
99.79634895010925
 20
149.6777826153508
 30
0.0
 11
100.8688135449024
 21
150.7502472101439
 31
0.0
  0
LINE
  5
572
330
1F
100
AcDbEntity
  8
0
100
AcDbLine
 10
101.8663705452797
 20
151.7478042105213
 30
0.0
 11
103.3051850340395
 21
153.186618699281
 31
0.0
  0
LINE
  5
573
330
1F
100
AcDbEntity
  8
0
100
AcDbLine
 10
99.7693792940496
 20
149.688289618694
 30
0.0
 11
100.834001361785
 21
150.7529116864294
 31
0.0
  0
LINE
  5
574
330
1F
100
AcDbEntity
  8
0
100
AcDbLine
 10
101.8697102492626
 20
151.7886205739069
 30
0.0
 11
103.2939246522217
 21
153.2128349768661
 31
0.0
  0
LINE
  5
575
330
1F
100
AcDbEntity
  8
0
100
AcDbLine
 10
99.74276526410404
 20
149.6991522481513
 30
0.0
 11
100.8006564279368
 21
150.7570434119841
 31
0.0
  0
LINE
  5
576
330
1F
100
AcDbEntity
  8
0
100
AcDbLine
 10
101.8724777795879
 20
151.8288647636351
 30
0.0
 11
103.2822867074671
 21
153.2386736915144
 31
0.0
  0
LINE
  5
577
330
1F
100
AcDbEntity
  8
0
100
AcDbLine
 10
99.71641995164161
 20
149.7102835950918
 30
0.0
 11
100.7684847055081
 21
150.7623483489583
 31
0.0
  0
LINE
  5
578
330
1F
100
AcDbEntity
  8
0
100
AcDbLine
 10
101.8747050251303
 20
151.8685686685804
 30
0.0
 11
103.2704044855972
 21
153.2642681290473
 31
0.0
  0
LINE
  5
579
330
1F
100
AcDbEntity
  8
0
100
AcDbLine
 10
99.69033923250467
 20
149.7216795353577
 30
0.0
 11
100.7372735585934
 21
150.7686138614465
 31
0.0
  0
LINE
  5
57A
330
1F
100
AcDbEntity
  8
0
100
AcDbLine
 10
101.8763988365253
 20
151.9077391393784
 30
0.0
 11
103.258284270539
 21
153.289624573392
 31
0.0
  0
LINE
  5
57B
330
1F
100
AcDbEntity
  8
0
100
AcDbLine
 10
99.6645766161845
 20
149.7333935784404
 30
0.0
 11
100.7067650725426
 21
150.7755820347985
 31
0.0
  0
LINE
  5
57C
330
1F
100
AcDbEntity
  8
0
100
AcDbLine
 10
101.8776097603246
 20
151.9464267225805
 30
0.0
 11
103.2457693245422
 21
153.3145862867981
 31
0.0
  0
LINE
  5
57D
330
1F
100
AcDbEntity
  8
0
100
AcDbLine
 10
99.63916040586925
 20
149.7454540275281
 30
0.0
 11
100.6772371951196
 21
150.7835308167784
 31
0.0
  0
LINE
  5
57E
330
1F
100
AcDbEntity
  8
0
100
AcDbLine
 10
101.8784151911768
 20
151.9847088128356
 30
0.0
 11
103.2330995060646
 21
153.3393931277234
 31
0.0
  0
LINE
  5
57F
330
1F
100
AcDbEntity
  8
0
100
AcDbLine
 10
99.61400048335904
 20
149.7577707644207
 30
0.0
 11
100.6485988839008
 21
150.7923691649625
 31
0.0
  0
LINE
  5
580
330
1F
100
AcDbEntity
  8
0
100
AcDbLine
 10
101.8789931510487
 20
152.0227634321104
 30
0.0
 11
103.2200181215871
 21
153.3637884026488
 31
0.0
  0
LINE
  5
581
330
1F
100
AcDbEntity
  8
0
100
AcDbLine
 10
99.58910257884656
 20
149.7703495193111
 30
0.0
 11
100.6208764486208
 21
150.8021233890854
 31
0.0
  0
LINE
  5
582
330
1F
100
AcDbEntity
  8
0
100
AcDbLine
 10
101.8794469601366
 20
152.0606939006012
 30
0.0
 11
103.2067351009562
 21
153.3879820414208
 31
0.0
  0
LINE
  5
583
330
1F
100
AcDbEntity
  8
0
100
AcDbLine
 10
99.56453290479206
 20
149.7832565046595
 30
0.0
 11
100.5941085753998
 21
150.8128321752673
 31
0.0
  0
LINE
  5
584
330
1F
100
AcDbEntity
  8
0
100
AcDbLine
 10
101.8790715480129
 20
152.0977951478804
 30
0.0
 11
103.1931946209484
 21
153.4119182208159
 31
0.0
  0
LINE
  5
585
330
1F
100
AcDbEntity
  8
0
100
AcDbLine
 10
99.54027405338503
 20
149.7964743126554
 30
0.0
 11
100.5681085624299
 21
150.8243088217002
 31
0.0
  0
LINE
  5
586
330
1F
100
AcDbEntity
  8
0
100
AcDbLine
 10
101.8783889045715
 20
152.1345891638418
 30
0.0
 11
103.1793253635488
 21
153.4355256228191
 31
0.0
  0
LINE
  5
587
330
1F
100
AcDbEntity
  8
0
100
AcDbLine
 10
99.51625975953691
 20
149.8099366782101
 30
0.0
 11
100.5428297700633
 21
150.8365066887365
 31
0.0
  0
LINE
  5
588
330
1F
100
AcDbEntity
  8
0
100
AcDbLine
 10
101.8774472699636
 20
152.1711241886369
 30
0.0
 11
103.1653281071979
 21
153.4590050258711
 31
0.0
  0
LINE
  5
589
330
1F
100
AcDbEntity
  8
0
100
AcDbLine
 10
99.49248567770968
 20
149.8236392557858
 30
0.0
 11
100.5183243958307
 21
150.8494779739068
 31
0.0
  0
LINE
  5
58A
330
1F
100
AcDbEntity
  8
0
100
AcDbLine
 10
101.8761270218005
 20
152.2072805998766
 30
0.0
 11
103.1509071686022
 21
153.4820607466783
 31
0.0
  0
LINE
  5
58B
330
1F
100
AcDbEntity
  8
0
100
AcDbLine
 10
99.4690497266655
 20
149.8376799641445
 30
0.0
 11
100.4944428768684
 21
150.8630731143474
 31
0.0
  0
LINE
  5
58C
330
1F
100
AcDbEntity
  8
0
100
AcDbLine
 10
101.8743344910962
 20
152.2429647285752
 30
0.0
 11
103.1363580458511
 21
153.5049882833301
 31
0.0
  0
LINE
  5
58D
330
1F
100
AcDbEntity
  8
0
100
AcDbLine
 10
99.44588408397192
 20
149.8519909808538
 30
0.0
 11
100.4711846181037
 21
150.8772915149856
 31
0.0
  0
LINE
  5
58E
330
1F
100
AcDbEntity
  8
0
100
AcDbLine
 10
101.8719927386933
 20
152.2780996355752
 30
0.0
 11
103.1215139511161
 21
153.527620847998
 31
0.0
  0
LINE
  5
58F
330
1F
100
AcDbEntity
  8
0
100
AcDbLine
 10
99.42295289138764
 20
149.8665364476724
 30
0.0
 11
100.4486163921865
 21
150.8921999484713
 31
0.0
  0
LINE
  5
590
330
1F
100
AcDbEntity
  8
0
100
AcDbLine
 10
101.8690322382672
 20
152.312615794552
 30
0.0
 11
103.1064270880711
 21
153.5500106443559
 31
0.0
  0
LINE
  5
591
330
1F
100
AcDbEntity
  8
0
100
AcDbLine
 10
99.40025385818845
 20
149.8813140738761
 30
0.0
 11
100.4269162310367
 21
150.9079764467244
 31
0.0
  0
LINE
  5
592
330
1F
100
AcDbEntity
  8
0
100
AcDbLine
 10
101.8655081211302
 20
152.3465683368178
 30
0.0
 11
103.0911666180761
 21
153.5722268337637
 31
0.0
  0
LINE
  5
593
330
1F
100
AcDbEntity
  8
0
100
AcDbLine
 10
99.37792061830493
 20
149.8964574933955
 30
0.0
 11
100.4059700256413
 21
150.9245069007318
 31
0.0
  0
LINE
  5
594
330
1F
100
AcDbEntity
  8
0
100
AcDbLine
 10
101.8613917914296
 20
152.3799286665201
 30
0.0
 11
103.075553236368
 21
153.5940901114585
 31
0.0
  0
LINE
  5
595
330
1F
100
AcDbEntity
  8
0
100
AcDbLine
 10
99.35581986080715
 20
149.9118333953006
 30
0.0
 11
100.3856743901249
 21
150.9416879246184
 31
0.0
  0
LINE
  5
596
330
1F
100
AcDbEntity
  8
0
100
AcDbLine
 10
101.8567392137093
 20
152.4127527482027
 30
0.0
 11
103.059830393784
 21
153.6158439282774
 31
0.0
  0
LINE
  5
597
330
1F
100
AcDbEntity
  8
0
100
AcDbLine
 10
99.33394777974047
 20
149.9274379736368
 30
0.0
 11
100.3659061105719
 21
150.9593963044682
 31
0.0
  0
LINE
  5
598
330
1F
100
AcDbEntity
  8
0
100
AcDbLine
 10
101.8515865848378
 20
152.4450767787341
 30
0.0
 11
103.043748935708
 21
153.6372391296043
 31
0.0
  0
LINE
  5
599
330
1F
100
AcDbEntity
  8
0
100
AcDbLine
 10
99.31236010320103
 20
149.9433269565002
 30
0.0
 11
100.3465778842301
 21
150.9775447375293
 31
0.0
  0
LINE
  5
59A
330
1F
100
AcDbEntity
  8
0
100
AcDbLine
 10
101.8459877239196
 20
152.4769545772188
 30
0.0
 11
103.027511888564
 21
153.6584787418632
 31
0.0
  0
LINE
  5
59B
330
1F
100
AcDbEntity
  8
0
100
AcDbLine
 10
99.29110111420601
 20
149.9595446269081
 30
0.0
 11
100.3277760270184
 21
150.9962195397205
 31
0.0
  0
LINE
  5
59C
330
1F
100
AcDbEntity
  8
0
100
AcDbLine
 10
101.8399857937209
 20
152.508429306423
 30
0.0
 11
103.0110246994736
 21
153.6794682121756
 31
0.0
  0
LINE
  5
59D
330
1F
100
AcDbEntity
  8
0
100
AcDbLine
 10
99.27007914760756
 20
149.9759993197125
 30
0.0
 11
100.3095493453703
 21
151.0154695174753
 31
0.0
  0
LINE
  5
59E
330
1F
100
AcDbEntity
  8
0
100
AcDbLine
 10
101.8335372384711
 20
152.539457410576
 30
0.0
 11
102.9942779199762
 21
153.7001980920811
 31
0.0
  0
LINE
  5
59F
330
1F
100
AcDbEntity
  8
0
100
AcDbLine
 10
99.24929434789195
 20
149.9926911793998
 30
0.0
 11
100.2919978696635
 21
151.0353947011713
 31
0.0
  0
LINE
  5
5A0
330
1F
100
AcDbEntity
  8
0
100
AcDbLine
 10
101.8265619229737
 20
152.5699587544815
 30
0.0
 11
102.9773847499435
 21
153.7207815814513
 31
0.0
  0
LINE
  5
5A1
330
1F
100
AcDbEntity
  8
0
100
AcDbLine
 10
99.22888098262857
 20
150.0097544735393
 30
0.0
 11
100.2751737522568
 21
151.0560472431675
 31
0.0
  0
LINE
  5
5A2
330
1F
100
AcDbEntity
  8
0
100
AcDbLine
 10
101.8189722074592
 20
152.5998456983699
 30
0.0
 11
102.9601284555964
 21
153.7410019465071
 31
0.0
  0
LINE
  5
5A3
330
1F
100
AcDbEntity
  8
0
100
AcDbLine
 10
99.2087155176658
 20
150.0270656679794
 30
0.0
 11
100.2591158074603
 21
151.0774659577739
 31
0.0
  0
LINE
  5
5A4
330
1F
100
AcDbEntity
  8
0
100
AcDbLine
 10
101.8107206723555
 20
152.6290708226691
 30
0.0
 11
102.9427733576897
 21
153.7611235080034
 31
0.0
  0
LINE
  5
5A5
330
1F
100
AcDbEntity
  8
0
100
AcDbLine
 10
99.18876654558467
 20
150.0445933553012
 30
0.0
 11
100.2438533334686
 21
151.0996801431851
 31
0.0
  0
LINE
  5
5A6
330
1F
100
AcDbEntity
  8
0
100
AcDbLine
 10
101.8017906434497
 20
152.6576174531662
 30
0.0
 11
102.9250477785177
 21
153.7808745882342
 31
0.0
  0
LINE
  5
5A7
330
1F
100
AcDbEntity
  8
0
100
AcDbLine
 10
99.16908348344079
 20
150.0623869525602
 30
0.0
 11
100.2294278792363
 21
151.1227313483556
 31
0.0
  0
LINE
  5
5A8
330
1F
100
AcDbEntity
  8
0
100
AcDbLine
 10
101.7922498429426
 20
152.685553312062
 30
0.0
 11
102.9071713913559
 21
153.8004748604753
 31
0.0
  0
LINE
  5
5A9
330
1F
100
AcDbEntity
  8
0
100
AcDbLine
 10
99.14967323041715
 20
150.0804533589394
 30
0.0
 11
100.2157829409797
 21
151.1465630695019
 31
0.0
  0
LINE
  5
5AA
330
1F
100
AcDbEntity
  8
0
100
AcDbLine
 10
101.7821570174934
 20
152.7129371460157
 30
0.0
 11
102.8890180258048
 21
153.8197981543271
 31
0.0
  0
LINE
  5
5AB
330
1F
100
AcDbEntity
  8
0
100
AcDbLine
 10
99.13044778343718
 20
150.0987045713623
 30
0.0
 11
100.202871772985
 21
151.1711285609101
 31
0.0
  0
LINE
  5
5AC
330
1F
100
AcDbEntity
  8
0
100
AcDbLine
 10
101.7715589388881
 20
152.7398157268133
 30
0.0
 11
102.8706090487045
 21
153.8388658366296
 31
0.0
  0
LINE
  5
5AD
330
1F
100
AcDbEntity
  8
0
100
AcDbLine
 10
99.11140223684733
 20
150.1171356841754
 30
0.0
 11
100.1905995468421
 21
151.1963329941701
 31
0.0
  0
LINE
  5
5AE
330
1F
100
AcDbEntity
  8
0
100
AcDbLine
 10
101.7604062711627
 20
152.7661397184908
 30
0.0
 11
102.8520193566054
 21
153.8577528039334
 31
0.0
  0
LINE
  5
5AF
330
1F
100
AcDbEntity
  8
0
100
AcDbLine
 10
99.09266737629065
 20
150.1358774830216
 30
0.0
 11
100.1788713771039
 21
151.2220814838348
 31
0.0
  0
LINE
  5
5B0
330
1F
100
AcDbEntity
  8
0
100
AcDbLine
 10
101.7486226995125
 20
152.7918328062434
 30
0.0
 11
102.8330665354169
 21
153.8762766421478
 31
0.0
  0
LINE
  5
5B1
330
1F
100
AcDbEntity
  8
0
100
AcDbLine
 10
99.07411562672472
 20
150.1548023928585
 30
0.0
 11
100.1677196160279
 21
151.2484063821617
 31
0.0
  0
LINE
  5
5B2
330
1F
100
AcDbEntity
  8
0
100
AcDbLine
 10
101.7361289934072
 20
152.816815759541
 30
0.0
 11
102.8140132860985
 21
153.8947000522323
 31
0.0
  0
LINE
  5
5B3
330
1F
100
AcDbEntity
  8
0
100
AcDbLine
 10
99.05574819626717
 20
150.1739116218039
 30
0.0
 11
100.1571774391131
 21
151.2753408646498
 31
0.0
  0
LINE
  5
5B4
330
1F
100
AcDbEntity
  8
0
100
AcDbLine
 10
101.7228933916614
 20
152.8410568171981
 30
0.0
 11
102.7945384053206
 21
153.9127018308573
 31
0.0
  0
LINE
  5
5B5
330
1F
100
AcDbEntity
  8
0
100
AcDbLine
 10
99.03766903553161
 20
150.1933091204712
 30
0.0
 11
100.147285754148
 21
151.3029258390876
 31
0.0
  0
LINE
  5
5B6
330
1F
100
AcDbEntity
  8
0
100
AcDbLine
 10
101.7089053226673
 20
152.8645454076069
 30
0.0
 11
102.7749445232216
 21
153.9305846081612
 31
0.0
  0
LINE
  5
5B7
330
1F
100
AcDbEntity
  8
0
100
AcDbLine
 10
99.01982728376406
 20
150.2129440281065
 30
0.0
 11
100.1380223665982
 21
151.3311391109406
 31
0.0
  0
LINE
  5
5B8
330
1F
100
AcDbEntity
  8
0
100
AcDbLine
 10
101.6942648837747
 20
152.8873816281172
 30
0.0
 11
102.7550330750147
 21
153.9481498193572
 31
0.0
  0
LINE
  5
5B9
330
1F
100
AcDbEntity
  8
0
100
AcDbLine
 10
99.00217082557364
 20
150.232764229319
 30
0.0
 11
100.1293575929687
 21
151.359950996714
 31
0.0
  0
LINE
  5
5BA
330
1F
100
AcDbEntity
  8
0
100
AcDbLine
 10
101.6790436791031
 20
152.9096370828485
 30
0.0
 11
102.7349045102912
 21
153.9654979140366
 31
0.0
  0
LINE
  5
5BB
330
1F
100
AcDbEntity
  8
0
100
AcDbLine
 10
98.98477860612734
 20
150.2528486692756
 30
0.0
 11
100.1212183568994
 21
151.3892884200477
 31
0.0
  0
LINE
  5
5BC
330
1F
100
AcDbEntity
  8
0
100
AcDbLine
 10
101.6632632340352
 20
152.9313332971834
 30
0.0
 11
102.7145607382598
 21
153.982630801408
 31
0.0
  0
LINE
  5
5BD
330
1F
100
AcDbEntity
  8
0
100
AcDbLine
 10
98.96765632360135
 20
150.2732030461524
 30
0.0
 11
100.1135327167338
 21
151.4190794392849
 31
0.0
  0
LINE
  5
5BE
330
1F
100
AcDbEntity
  8
0
100
AcDbLine
 10
101.6469114960303
 20
152.9524582185814
 30
0.0
 11
102.6939019557582
 21
153.9994486783093
 31
0.0
  0
LINE
  5
5BF
330
1F
100
AcDbEntity
  8
0
100
AcDbLine
 10
98.95072298025968
 20
150.2937463622137
 30
0.0
 11
100.1062441199624
 21
151.4492675019164
 31
0.0
  0
LINE
  5
5C0
330
1F
100
AcDbEntity
  8
0
100
AcDbLine
 10
101.6299571571503
 20
152.9729805391042
 30
0.0
 11
102.67312944799
 21
154.016152829944
 31
0.0
  0
LINE
  5
5C1
330
1F
100
AcDbEntity
  8
0
100
AcDbLine
 10
98.9340254905572
 20
150.3145255319141
 30
0.0
 11
100.0994021815685
 21
151.4799022229254
 31
0.0
  0
LINE
  5
5C2
330
1F
100
AcDbEntity
  8
0
100
AcDbLine
 10
101.6123753765721
 20
152.992875417929
 30
0.0
 11
102.651939913009
 21
154.0324399543659
 31
0.0
  0
LINE
  5
5C3
330
1F
100
AcDbEntity
  8
0
100
AcDbLine
 10
98.91763376656203
 20
150.3356104673218
 30
0.0
 11
100.0930699276232
 21
151.511046628383
 31
0.0
  0
LINE
  5
5C4
330
1F
100
AcDbEntity
  8
0
100
AcDbLine
 10
101.5941454958308
 20
153.0121221965906
 30
0.0
 11
102.6306537091761
 21
154.0486304099358
 31
0.0
  0
LINE
  5
5C5
330
1F
100
AcDbEntity
  8
0
100
AcDbLine
 10
98.90142410612296
 20
150.3568774662856
 30
0.0
 11
100.0873190728691
 21
151.5427724330317
 31
0.0
  0
LINE
  5
5C6
330
1F
100
AcDbEntity
  8
0
100
AcDbLine
 10
101.575268358039
 20
153.0307217182016
 30
0.0
 11
102.6090156049338
 21
154.0644689650965
 31
0.0
  0
LINE
  5
5C7
330
1F
100
AcDbEntity
  8
0
100
AcDbLine
 10
98.88543067017234
 20
150.3783606897379
 30
0.0
 11
100.0821607512998
 21
151.5750907708653
 31
0.0
  0
LINE
  5
5C8
330
1F
100
AcDbEntity
  8
0
100
AcDbLine
 10
101.5557399732399
 20
153.0486699928055
 30
0.0
 11
102.5871910673931
 21
154.0801210869586
 31
0.0
  0
LINE
  5
5C9
330
1F
100
AcDbEntity
  8
0
100
AcDbLine
 10
98.8697519467763
 20
150.4001586257447
 30
0.0
 11
100.0776201903372
 21
151.6080268693057
 31
0.0
  0
LINE
  5
5CA
330
1F
100
AcDbEntity
  8
0
100
AcDbLine
 10
101.5355180206833
 20
153.0659246996517
 30
0.0
 11
102.5651102603143
 21
154.0955169392827
 31
0.0
  0
LINE
  5
5CB
330
1F
100
AcDbEntity
  8
0
100
AcDbLine
 10
98.85425351293125
 20
150.4221368513026
 30
0.0
 11
100.0735639566437
 21
151.641447295015
 31
0.0
  0
LINE
  5
5CC
330
1F
100
AcDbEntity
  8
0
100
AcDbLine
 10
101.5146450468804
 20
153.0825283852517
 30
0.0
 11
102.5427342394823
 21
154.1106175778536
 31
0.0
  0
LINE
  5
5CD
330
1F
100
AcDbEntity
  8
0
100
AcDbLine
 10
97.94644209383429
 20
149.5518020916085
 30
0.0
 11
97.97550089729253
 21
149.5808608950667
 31
0.0
  0
LINE
  5
5CE
330
1F
100
AcDbEntity
  8
0
100
AcDbLine
 10
98.83894968495315
 20
150.4443096827273
 30
0.0
 11
100.0698982730148
 21
151.675258270789
 31
0.0
  0
LINE
  5
5CF
330
1F
100
AcDbEntity
  8
0
100
AcDbLine
 10
101.49317711475
 20
153.0985371125242
 30
0.0
 11
102.5202033554224
 21
154.1255633531966
 31
0.0
  0
LINE
  5
5D0
330
1F
100
AcDbEntity
  8
0
100
AcDbLine
 10
97.90896543443144
 20
149.5518020916085
 30
0.0
 11
97.97550089729253
 21
149.6183375544696
 31
0.0
  0
LINE
  5
5D1
330
1F
100
AcDbEntity
  8
0
100
AcDbLine
 10
98.82397462879408
 20
150.4668112859711
 30
0.0
 11
100.0665296370478
 21
151.7093662942248
 31
0.0
  0
LINE
  5
5D2
330
1F
100
AcDbEntity
  8
0
100
AcDbLine
 10
101.4711389814947
 20
153.1139756386718
 30
0.0
 11
102.4972606353956
 21
154.1400972925727
 31
0.0
  0
LINE
  5
5D3
330
1F
100
AcDbEntity
  8
0
100
AcDbLine
 10
97.87148877502855
 20
149.5518020916085
 30
0.0
 11
97.9755008972925
 21
149.6558142138724
 31
0.0
  0
LINE
  5
5D4
330
1F
100
AcDbEntity
  8
0
100
AcDbLine
 10
98.8091672944794
 20
150.4894806110593
 30
0.0
 11
100.0634810551374
 21
151.7437943717174
 31
0.0
  0
LINE
  5
5D5
330
1F
100
AcDbEntity
  8
0
100
AcDbLine
 10
101.4485324933155
 20
153.1288458098955
 30
0.0
 11
102.4742010862953
 21
154.1545144028752
 31
0.0
  0
LINE
  5
5D6
330
1F
100
AcDbEntity
  8
0
100
AcDbLine
 10
97.83401211562567
 20
149.5518020916085
 30
0.0
 11
97.9755008972925
 21
149.6932908732753
 31
0.0
  0
LINE
  5
5D7
330
1F
100
AcDbEntity
  8
0
100
AcDbLine
 10
98.79454379592913
 20
150.512333771912
 30
0.0
 11
100.0608290366001
 21
151.7786190125829
 31
0.0
  0
LINE
  5
5D8
330
1F
100
AcDbEntity
  8
0
100
AcDbLine
 10
101.4253335824583
 20
153.1431235584411
 30
0.0
 11
102.4507431898284
 21
154.1685331658112
 31
0.0
  0
LINE
  5
5D9
330
1F
100
AcDbEntity
  8
0
100
AcDbLine
 10
97.79653545622278
 20
149.5518020916085
 30
0.0
 11
97.9755008972925
 21
149.7307675326782
 31
0.0
  0
LINE
  5
5DA
330
1F
100
AcDbEntity
  8
0
100
AcDbLine
 10
98.78023584558231
 20
150.535502480968
 30
0.0
 11
100.058598340606
 21
151.8138649759917
 31
0.0
  0
LINE
  5
5DB
330
1F
100
AcDbEntity
  8
0
100
AcDbLine
 10
101.4014686945297
 20
153.1567353299154
 30
0.0
 11
102.4271049465553
 21
154.182371581941
 31
0.0
  0
LINE
  5
5DC
330
1F
100
AcDbEntity
  8
0
100
AcDbLine
 10
97.7590587968199
 20
149.5518020916085
 30
0.0
 11
97.97550089729253
 21
149.7682441920811
 31
0.0
  0
LINE
  5
5DD
330
1F
100
AcDbEntity
  8
0
100
AcDbLine
 10
98.76609066665448
 20
150.5588339614431
 30
0.0
 11
100.0568460630769
 21
151.8495893578655
 31
0.0
  0
LINE
  5
5DE
330
1F
100
AcDbEntity
  8
0
100
AcDbLine
 10
101.376891805377
 20
153.1696351001656
 30
0.0
 11
102.4031772421645
 21
154.1959205369531
 31
0.0
  0
LINE
  5
5DF
330
1F
100
AcDbEntity
  8
0
100
AcDbLine
 10
97.72158213741699
 20
149.5518020916085
 30
0.0
 11
97.9755008972925
 21
149.805720851484
 31
0.0
  0
LINE
  5
5E0
330
1F
100
AcDbEntity
  8
0
100
AcDbLine
 10
98.75211748716636
 20
150.5823374413579
 30
0.0
 11
100.0555550517745
 21
151.885775005966
 31
0.0
  0
LINE
  5
5E1
330
1F
100
AcDbEntity
  8
0
100
AcDbLine
 10
101.351594845723
 20
153.1818147999145
 30
0.0
 11
102.378957171302
 21
154.2091771254935
 31
0.0
  0
LINE
  5
5E2
330
1F
100
AcDbEntity
  8
0
100
AcDbLine
 10
97.68410547801413
 20
149.5518020916085
 30
0.0
 11
97.9755008972925
 21
149.8431975108869
 31
0.0
  0
LINE
  5
5E3
330
1F
100
AcDbEntity
  8
0
100
AcDbLine
 10
98.73845878962055
 20
150.6061554032149
 30
0.0
 11
100.0546505230654
 21
151.9223471366598
 31
0.0
  0
LINE
  5
5E4
330
1F
100
AcDbEntity
  8
0
100
AcDbLine
 10
101.3255207272274
 20
153.1932173408218
 30
0.0
 11
102.3545642896201
 21
154.2222609032144
 31
0.0
  0
LINE
  5
5E5
330
1F
100
AcDbEntity
  8
0
100
AcDbLine
 10
97.64662881861125
 20
149.5518020916085
 30
0.0
 11
97.97550089729253
 21
149.8806741702898
 31
0.0
  0
LINE
  5
5E6
330
1F
100
AcDbEntity
  8
0
100
AcDbLine
 10
98.72496972814022
 20
150.6301430011375
 30
0.0
 11
100.0540213152218
 21
151.9591945882191
 31
0.0
  0
LINE
  5
5E7
330
1F
100
AcDbEntity
  8
0
100
AcDbLine
 10
101.2986123117224
 20
153.2037855847197
 30
0.0
 11
102.3297635991885
 21
154.2349368721858
 31
0.0
  0
LINE
  5
5E8
330
1F
100
AcDbEntity
  8
0
100
AcDbLine
 10
97.60915215920835
 20
149.5518020916085
 30
0.0
 11
97.97550089729253
 21
149.9181508296927
 31
0.0
  0
LINE
  5
5E9
330
1F
100
AcDbEntity
  8
0
100
AcDbLine
 10
98.71167032031852
 20
150.6543202527187
 30
0.0
 11
100.0535487490292
 21
151.9961986814293
 31
0.0
  0
LINE
  5
5EA
330
1F
100
AcDbEntity
  8
0
100
AcDbLine
 10
101.2708291694151
 20
153.2134791018153
 30
0.0
 11
102.3048397985438
 21
154.2474897309439
 31
0.0
  0
LINE
  5
5EB
330
1F
100
AcDbEntity
  8
0
100
AcDbLine
 10
97.57167549980547
 20
149.5518020916085
 30
0.0
 11
97.9755008972925
 21
149.9556274890955
 31
0.0
  0
LINE
  5
5EC
330
1F
100
AcDbEntity
  8
0
100
AcDbLine
 10
98.69873789931465
 20
150.6788644911177
 30
0.0
 11
100.0538025657428
 21
152.0339291575458
 31
0.0
  0
LINE
  5
5ED
330
1F
100
AcDbEntity
  8
0
100
AcDbLine
 10
101.2422846617697
 20
153.2224112535727
 30
0.0
 11
102.2795286841728
 21
154.2596552759759
 31
0.0
  0
LINE
  5
5EE
330
1F
100
AcDbEntity
  8
0
100
AcDbLine
 10
97.53419884040258
 20
149.5518020916085
 30
0.0
 11
97.9755008972925
 21
149.9931041484984
 31
0.0
  0
LINE
  5
5EF
330
1F
100
AcDbEntity
  8
0
100
AcDbLine
 10
98.68601441372618
 20
150.7036176649321
 30
0.0
 11
100.0543547755297
 21
152.0719580267356
 31
0.0
  0
LINE
  5
5F0
330
1F
100
AcDbEntity
  8
0
100
AcDbLine
 10
101.213120579276
 20
153.2307238304819
 30
0.0
 11
102.2540172715607
 21
154.2716205227666
 31
0.0
  0
LINE
  5
5F1
330
1F
100
AcDbEntity
  8
0
100
AcDbLine
 10
97.4967221809997
 20
149.5518020916085
 30
0.0
 11
97.9755008972925
 21
150.0305808079013
 31
0.0
  0
LINE
  5
5F2
330
1F
100
AcDbEntity
  8
0
100
AcDbLine
 10
98.67352089398223
 20
150.728600804591
 30
0.0
 11
100.0551702167633
 21
152.1102501273721
 31
0.0
  0
LINE
  5
5F3
330
1F
100
AcDbEntity
  8
0
100
AcDbLine
 10
101.1833340851853
 20
153.2384139957941
 30
0.0
 11
102.2282447107047
 21
154.2833246213135
 31
0.0
  0
LINE
  5
5F4
330
1F
100
AcDbEntity
  8
0
100
AcDbLine
 10
97.45924552159681
 20
149.5518020916085
 30
0.0
 11
97.97550089729252
 21
150.0680574673042
 31
0.0
  0
LINE
  5
5F5
330
1F
100
AcDbEntity
  8
0
100
AcDbLine
 10
98.66146373898566
 20
150.7540203089973
 30
0.0
 11
100.0563870674495
 21
152.1489436374612
 31
0.0
  0
LINE
  5
5F6
330
1F
100
AcDbEntity
  8
0
100
AcDbLine
 10
101.152717561739
 20
153.2452741317506
 30
0.0
 11
102.2021598115699
 21
154.2947163815815
 31
0.0
  0
LINE
  5
5F7
330
1F
100
AcDbEntity
  8
0
100
AcDbLine
 10
97.42176886219393
 20
149.5518020916085
 30
0.0
 11
97.97550089729252
 21
150.1055341267071
 31
0.0
  0
LINE
  5
5F8
330
1F
100
AcDbEntity
  8
0
100
AcDbLine
 10
98.64962765036412
 20
150.7796608797787
 30
0.0
 11
100.0581444974199
 21
152.1881777268345
 31
0.0
  0
LINE
  5
5F9
330
1F
100
AcDbEntity
  8
0
100
AcDbLine
 10
101.121148116257
 20
153.2511813456716
 30
0.0
 11
102.1759218676982
 21
154.3059550971128
 31
0.0
  0
LINE
  5
5FA
330
1F
100
AcDbEntity
  8
0
100
AcDbLine
 10
97.38429220279104
 20
149.5518020916085
 30
0.0
 11
97.97550089729252
 21
150.14301078611
 31
0.0
  0
LINE
  5
5FB
330
1F
100
AcDbEntity
  8
0
100
AcDbLine
 10
98.63803500212339
 20
150.8055448909408
 30
0.0
 11
100.0605341874969
 21
152.2280440763144
 31
0.0
  0
LINE
  5
5FC
330
1F
100
AcDbEntity
  8
0
100
AcDbLine
 10
101.0885492179852
 20
153.2560591068026
 30
0.0
 11
102.149257830022
 21
154.3167677188394
 31
0.0
  0
LINE
  5
5FD
330
1F
100
AcDbEntity
  8
0
100
AcDbLine
 10
97.34681554338816
 20
149.5518020916085
 30
0.0
 11
97.97550089729253
 21
150.1804874455129
 31
0.0
  0
LINE
  5
5FE
330
1F
100
AcDbEntity
  8
0
100
AcDbLine
 10
98.62685510424541
 20
150.8318416524657
 30
0.0
 11
100.0635385821541
 21
152.2685251303745
 31
0.0
  0
LINE
  5
5FF
330
1F
100
AcDbEntity
  8
0
100
AcDbLine
 10
101.0548845374824
 20
153.2598710857028
 30
0.0
 11
102.1224712293995
 21
154.3274577776198
 31
0.0
  0
LINE
  5
600
330
1F
100
AcDbEntity
  8
0
100
AcDbLine
 10
97.30933888398528
 20
149.5518020916085
 30
0.0
 11
97.97550089729252
 21
150.2179641049157
 31
0.0
  0
LINE
  5
601
330
1F
100
AcDbEntity
  8
0
100
AcDbLine
 10
98.61588754892632
 20
150.8583507565495
 30
0.0
 11
100.0672087406549
 21
152.3096719482781
 31
0.0
  0
LINE
  5
602
330
1F
100
AcDbEntity
  8
0
100
AcDbLine
 10
101.0202242905151
 20
153.2626874981383
 30
0.0
 11
102.0953135439442
 21
154.3377767515674
 31
0.0
  0
LINE
  5
603
330
1F
100
AcDbEntity
  8
0
100
AcDbLine
 10
97.27186222458239
 20
149.5518020916085
 30
0.0
 11
97.97550089729252
 21
150.2554407643186
 31
0.0
  0
LINE
  5
604
330
1F
100
AcDbEntity
  8
0
100
AcDbLine
 10
98.6051362321338
 20
150.8850760991599
 30
0.0
 11
100.0714335194502
 21
152.3513733864763
 31
0.0
  0
LINE
  5
605
330
1F
100
AcDbEntity
  8
0
100
AcDbLine
 10
100.9847547343195
 20
153.2646946013456
 30
0.0
 11
102.0679410729415
 21
154.3478809399676
 31
0.0
  0
LINE
  5
606
330
1F
100
AcDbEntity
  8
0
100
AcDbLine
 10
97.23438556517951
 20
149.5518020916085
 30
0.0
 11
97.97550089729253
 21
150.2929174237215
 31
0.0
  0
LINE
  5
607
330
1F
100
AcDbEntity
  8
0
100
AcDbLine
 10
98.59478395737338
 20
150.9122004838024
 30
0.0
 11
100.0763043389751
 21
152.3937208654041
 31
0.0
  0
LINE
  5
608
330
1F
100
AcDbEntity
  8
0
100
AcDbLine
 10
100.9486818891346
 20
153.2660984155636
 30
0.0
 11
102.0403286663031
 21
154.357745192732
 31
0.0
  0
LINE
  5
609
330
1F
100
AcDbEntity
  8
0
100
AcDbLine
 10
97.19690890577662
 20
149.5518020916085
 30
0.0
 11
97.97550089729252
 21
150.3303940831244
 31
0.0
  0
LINE
  5
60A
330
1F
100
AcDbEntity
  8
0
100
AcDbLine
 10
98.58463362064545
 20
150.9395268064773
 30
0.0
 11
100.0820806790144
 21
152.4369738648463
 31
0.0
  0
LINE
  5
60B
330
1F
100
AcDbEntity
  8
0
100
AcDbLine
 10
100.9118070249943
 20
153.2667002108261
 30
0.0
 11
102.0123612417621
 21
154.367254427594
 31
0.0
  0
LINE
  5
60C
330
1F
100
AcDbEntity
  8
0
100
AcDbLine
 10
97.15943224637374
 20
149.5518020916085
 30
0.0
 11
97.97550089729253
 21
150.3678707425273
 31
0.0
  0
LINE
  5
60D
330
1F
100
AcDbEntity
  8
0
100
AcDbLine
 10
98.57468887838836
 20
150.9670587236231
 30
0.0
 11
100.0892814228443
 21
152.481651268079
 31
0.0
  0
LINE
  5
60E
330
1F
100
AcDbEntity
  8
0
100
AcDbLine
 10
100.8732385370017
 20
153.2656083822365
 30
0.0
 11
101.9842797340832
 21
154.376649579318
 31
0.0
  0
LINE
  5
60F
330
1F
100
AcDbEntity
  8
0
100
AcDbLine
 10
97.12195558697086
 20
149.5518020916085
 30
0.0
 11
97.97550089729252
 21
150.4053474019302
 31
0.0
  0
LINE
  5
610
330
1F
100
AcDbEntity
  8
0
100
AcDbLine
 10
98.56515596214244
 20
150.9950024667801
 30
0.0
 11
100.0981053516904
 21
152.5279518563281
 31
0.0
  0
LINE
  5
611
330
1F
100
AcDbEntity
  8
0
100
AcDbLine
 10
100.8332623725863
 20
153.2631088772239
 30
0.0
 11
101.9557388216753
 21
154.3855853263129
 31
0.0
  0
LINE
  5
612
330
1F
100
AcDbEntity
  8
0
100
AcDbLine
 10
97.08447892756799
 20
149.5518020916085
 30
0.0
 11
97.97550089729252
 21
150.442824061333
 31
0.0
  0
LINE
  5
613
330
1F
100
AcDbEntity
  8
0
100
AcDbLine
 10
98.55583853541411
 20
151.0231616994546
 30
0.0
 11
100.1086813873941
 21
152.5760045514346
 31
0.0
  0
LINE
  5
614
330
1F
100
AcDbEntity
  8
0
100
AcDbLine
 10
100.7905045845303
 20
153.2578277485708
 30
0.0
 11
101.9270660518575
 21
154.394389215898
 31
0.0
  0
LINE
  5
615
330
1F
100
AcDbEntity
  8
0
100
AcDbLine
 10
97.04700226816509
 20
149.5518020916085
 30
0.0
 11
97.97550089729252
 21
150.4803007207359
 31
0.0
  0
LINE
  5
616
330
1F
100
AcDbEntity
  8
0
100
AcDbLine
 10
98.54674258069535
 20
151.0515424041388
 30
0.0
 11
100.1212706778874
 21
152.6260705013308
 31
0.0
  0
LINE
  5
617
330
1F
100
AcDbEntity
  8
0
100
AcDbLine
 10
100.7447281385851
 20
153.2495279620285
 30
0.0
 11
101.8980590443163
 21
154.4028588677597
 31
0.0
  0
LINE
  5
618
330
1F
100
AcDbEntity
  8
0
100
AcDbLine
 10
97.0095256087622
 20
149.5518020916085
 30
0.0
 11
97.97550089729252
 21
150.5177773801388
 31
0.0
  0
LINE
  5
619
330
1F
100
AcDbEntity
  8
0
100
AcDbLine
 10
98.53805519510992
 20
151.0803316779562
 30
0.0
 11
100.1364039182675
 21
152.6786804011138
 31
0.0
  0
LINE
  5
61A
330
1F
100
AcDbEntity
  8
0
100
AcDbLine
 10
100.6957114788708
 20
153.2379879617171
 30
0.0
 11
101.8687892327141
 21
154.4110657155604
 31
0.0
  0
LINE
  5
61B
330
1F
100
AcDbEntity
  8
0
100
AcDbLine
 10
96.97204894935932
 20
149.5518020916085
 30
0.0
 11
97.97550089729252
 21
150.5552540395417
 31
0.0
  0
LINE
  5
61C
330
1F
100
AcDbEntity
  8
0
100
AcDbLine
 10
98.52960981432396
 20
151.1093629565731
 30
0.0
 11
100.1554795426994
 21
152.7352326849486
 31
0.0
  0
LINE
  5
61D
330
1F
100
AcDbEntity
  8
0
100
AcDbLine
 10
100.6419733499932
 20
153.2217264922424
 30
0.0
 11
101.8393177041734
 21
154.4190708464226
 31
0.0
  0
LINE
  5
61E
330
1F
100
AcDbEntity
  8
0
100
AcDbLine
 10
96.93457228995645
 20
149.5518020916085
 30
0.0
 11
97.97550089729252
 21
150.5927306989446
 31
0.0
  0
LINE
  5
61F
330
1F
100
AcDbEntity
  8
0
100
AcDbLine
 10
98.52139351203861
 20
151.1386233136907
 30
0.0
 11
100.181082081073
 21
152.798311882725
 31
0.0
  0
LINE
  5
620
330
1F
100
AcDbEntity
  8
0
100
AcDbLine
 10
100.5798462128824
 20
153.1970760145345
 30
0.0
 11
101.8094448628233
 21
154.4266746644754
 31
0.0
  0
LINE
  5
621
330
1F
100
AcDbEntity
  8
0
100
AcDbLine
 10
96.89709563055355
 20
149.5518020916085
 30
0.0
 11
97.97550089729252
 21
150.6302073583475
 31
0.0
  0
LINE
  5
622
330
1F
100
AcDbEntity
  8
0
100
AcDbLine
 10
98.51358730957539
 20
151.1682937706303
 30
0.0
 11
100.2196359767569
 21
152.8743424378118
 31
0.0
  0
LINE
  5
623
330
1F
100
AcDbEntity
  8
0
100
AcDbLine
 10
100.5014097648359
 20
153.1561162258908
 30
0.0
 11
101.7794222737662
 21
154.4341287348212
 31
0.0
  0
LINE
  5
624
330
1F
100
AcDbEntity
  8
0
100
AcDbLine
 10
96.85961897115068
 20
149.5518020916085
 30
0.0
 11
97.97550089729253
 21
150.6676840177504
 31
0.0
  0
LINE
  5
625
330
1F
100
AcDbEntity
  8
0
100
AcDbLine
 10
98.50605578138797
 20
151.1982389018458
 30
0.0
 11
101.7490140661397
 21
154.4411971865975
 31
0.0
  0
LINE
  5
626
330
1F
100
AcDbEntity
  8
0
100
AcDbLine
 10
96.82214231174778
 20
149.5518020916085
 30
0.0
 11
97.97550089729252
 21
150.7051606771532
 31
0.0
  0
LINE
  5
627
330
1F
100
AcDbEntity
  8
0
100
AcDbLine
 10
98.49877392125025
 20
151.228433701111
 30
0.0
 11
101.7183932079261
 21
154.4480529877868
 31
0.0
  0
LINE
  5
628
330
1F
100
AcDbEntity
  8
0
100
AcDbLine
 10
96.78466565234491
 20
149.5518020916085
 30
0.0
 11
97.97550089729252
 21
150.7426373365561
 31
0.0
  0
LINE
  5
629
330
1F
100
AcDbEntity
  8
0
100
AcDbLine
 10
98.4918755078664
 20
151.25901194713
 30
0.0
 11
101.6875001877574
 21
154.4546366270209
 31
0.0
  0
LINE
  5
62A
330
1F
100
AcDbEntity
  8
0
100
AcDbLine
 10
96.74718899294201
 20
149.5518020916085
 30
0.0
 11
97.97550089729252
 21
150.780113995959
 31
0.0
  0
LINE
  5
62B
330
1F
100
AcDbEntity
  8
0
100
AcDbLine
 10
98.48528622492621
 20
151.2898993235927
 30
0.0
 11
101.6562624890584
 21
154.4608755877249
 31
0.0
  0
LINE
  5
62C
330
1F
100
AcDbEntity
  8
0
100
AcDbLine
 10
96.70971233353913
 20
149.5518020916085
 30
0.0
 11
97.97550089729252
 21
150.8175906553619
 31
0.0
  0
LINE
  5
62D
330
1F
100
AcDbEntity
  8
0
100
AcDbLine
 10
98.47893473504513
 20
151.3210244931145
 30
0.0
 11
101.6248826456594
 21
154.4669724037288
 31
0.0
  0
LINE
  5
62E
330
1F
100
AcDbEntity
  8
0
100
AcDbLine
 10
96.67223567413626
 20
149.5518020916085
 30
0.0
 11
97.9755008972925
 21
150.8550673147647
 31
0.0
  0
LINE
  5
62F
330
1F
100
AcDbEntity
  8
0
100
AcDbLine
 10
98.47292073639285
 20
151.3524871538651
 30
0.0
 11
101.5930217897413
 21
154.4725882072136
 31
0.0
  0
LINE
  5
630
330
1F
100
AcDbEntity
  8
0
100
AcDbLine
 10
96.63475901473336
 20
149.5518020916085
 30
0.0
 11
97.95708967780726
 21
150.8741327546824
 31
0.0
  0
LINE
  5
631
330
1F
100
AcDbEntity
  8
0
100
AcDbLine
 10
98.46722349583021
 20
151.3842665727053
 30
0.0
 11
101.5610067263508
 21
154.4780498032259
 31
0.0
  0
LINE
  5
632
330
1F
100
AcDbEntity
  8
0
100
AcDbLine
 10
96.59728235533049
 20
149.5518020916085
 30
0.0
 11
97.91961301840438
 21
150.8741327546824
 31
0.0
  0
LINE
  5
633
330
1F
100
AcDbEntity
  8
0
100
AcDbLine
 10
98.46175567263073
 20
151.4162754089087
 30
0.0
 11
101.5286629021671
 21
154.4831826384451
 31
0.0
  0
LINE
  5
634
330
1F
100
AcDbEntity
  8
0
100
AcDbLine
 10
96.55980569592761
 20
149.5518020916085
 30
0.0
 11
97.88213635900149
 21
150.8741327546824
 31
0.0
  0
LINE
  5
635
330
1F
100
AcDbEntity
  8
0
100
AcDbLine
 10
98.45655442180336
 20
151.4485508174843
 30
0.0
 11
101.4960222113177
 21
154.4880186069986
 31
0.0
  0
LINE
  5
636
330
1F
100
AcDbEntity
  8
0
100
AcDbLine
 10
96.52232903652471
 20
149.5518020916085
 30
0.0
 11
97.84465969959861
 21
150.8741327546824
 31
0.0
  0
LINE
  5
637
330
1F
100
AcDbEntity
  8
0
100
AcDbLine
 10
98.45170893861624
 20
151.4811819937
 30
0.0
 11
101.4631365597285
 21
154.4926096148123
 31
0.0
  0
LINE
  5
638
330
1F
100
AcDbEntity
  8
0
100
AcDbLine
 10
96.48485237712181
 20
149.5518020916085
 30
0.0
 11
97.80718304019572
 21
150.8741327546824
 31
0.0
  0
LINE
  5
639
330
1F
100
AcDbEntity
  8
0
100
AcDbLine
 10
98.44709066204261
 20
151.5140403765293
 30
0.0
 11
101.4299101801691
 21
154.4968598946558
 31
0.0
  0
LINE
  5
63A
330
1F
100
AcDbEntity
  8
0
100
AcDbLine
 10
96.44737571771896
 20
149.5518020916085
 30
0.0
 11
97.76970638079284
 21
150.8741327546824
 31
0.0
  0
LINE
  5
63B
330
1F
100
AcDbEntity
  8
0
100
AcDbLine
 10
98.44272394661077
 20
151.5471503205003
 30
0.0
 11
101.3963502314141
 21
154.5007766053037
 31
0.0
  0
LINE
  5
63C
330
1F
100
AcDbEntity
  8
0
100
AcDbLine
 10
96.40989905831607
 20
149.5518020916085
 30
0.0
 11
97.73222972138997
 21
150.8741327546824
 31
0.0
  0
LINE
  5
63D
330
1F
100
AcDbEntity
  8
0
100
AcDbLine
 10
98.4387721845173
 20
151.5806752178097
 30
0.0
 11
101.3625366816967
 21
154.5044397149891
 31
0.0
  0
LINE
  5
63E
330
1F
100
AcDbEntity
  8
0
100
AcDbLine
 10
96.37242239891319
 20
149.5518020916085
 30
0.0
 11
97.69475306198707
 21
150.8741327546824
 31
0.0
  0
LINE
  5
63F
330
1F
100
AcDbEntity
  8
0
100
AcDbLine
 10
98.43503732131757
 20
151.6144170140129
 30
0.0
 11
101.3284410330481
 21
154.5078207257434
 31
0.0
  0
LINE
  5
640
330
1F
100
AcDbEntity
  8
0
100
AcDbLine
 10
96.3349457395103
 20
149.5518020916085
 30
0.0
 11
97.6572764025842
 21
150.8741327546824
 31
0.0
  0
LINE
  5
641
330
1F
100
AcDbEntity
  8
0
100
AcDbLine
 10
98.4316528380823
 20
151.6485091901805
 30
0.0
 11
101.2939245785276
 21
154.5107809306258
 31
0.0
  0
LINE
  5
642
330
1F
100
AcDbEntity
  8
0
100
AcDbLine
 10
96.29746908010742
 20
149.5518020916085
 30
0.0
 11
97.61979974318132
 21
150.8741327546824
 31
0.0
  0
LINE
  5
643
330
1F
100
AcDbEntity
  8
0
100
AcDbLine
 10
98.42860105129486
 20
151.6829340627959
 30
0.0
 11
101.2591337022432
 21
154.5134667137443
 31
0.0
  0
LINE
  5
644
330
1F
100
AcDbEntity
  8
0
100
AcDbLine
 10
96.25999242070453
 20
149.5518020916085
 30
0.0
 11
97.58232308377843
 21
150.8741327546824
 31
0.0
  0
LINE
  5
645
330
1F
100
AcDbEntity
  8
0
100
AcDbLine
 10
98.42589693756939
 20
151.7177066084733
 30
0.0
 11
101.2240659053536
 21
154.5158755762575
 31
0.0
  0
LINE
  5
646
330
1F
100
AcDbEntity
  8
0
100
AcDbLine
 10
96.22251576130165
 20
149.5518020916085
 30
0.0
 11
97.54484642437555
 21
150.8741327546824
 31
0.0
  0
LINE
  5
647
330
1F
100
AcDbEntity
  8
0
100
AcDbLine
 10
98.42355654250278
 20
151.7528428728096
 30
0.0
 11
101.1886612031741
 21
154.517947533481
 31
0.0
  0
LINE
  5
648
330
1F
100
AcDbEntity
  8
0
100
AcDbLine
 10
96.18503910189877
 20
149.5518020916085
 30
0.0
 11
97.50736976497264
 21
150.8741327546824
 31
0.0
  0
LINE
  5
649
330
1F
100
AcDbEntity
  8
0
100
AcDbLine
 10
98.42159707825294
 20
151.7883600679627
 30
0.0
 11
101.1529078506358
 21
154.5196708403455
 31
0.0
  0
LINE
  5
64A
330
1F
100
AcDbEntity
  8
0
100
AcDbLine
 10
96.14756244249588
 20
149.5518020916085
 30
0.0
 11
97.46989310556975
 21
150.8741327546824
 31
0.0
  0
LINE
  5
64B
330
1F
100
AcDbEntity
  8
0
100
AcDbLine
 10
98.42003370995161
 20
151.8242733590642
 30
0.0
 11
101.1169146171269
 21
154.5211542662395
 31
0.0
  0
LINE
  5
64C
330
1F
100
AcDbEntity
  8
0
100
AcDbLine
 10
96.110085783093
 20
149.5518020916085
 30
0.0
 11
97.4324164461669
 21
150.8741327546824
 31
0.0
  0
LINE
  5
64D
330
1F
100
AcDbEntity
  8
0
100
AcDbLine
 10
98.41882575180139
 20
151.8605420603169
 30
0.0
 11
101.080711766052
 21
154.5224280745675
 31
0.0
  0
LINE
  5
64E
330
1F
100
AcDbEntity
  8
0
100
AcDbLine
 10
96.07260912369011
 20
149.5518020916085
 30
0.0
 11
97.39493978676401
 21
150.8741327546824
 31
0.0
  0
LINE
  5
64F
330
1F
100
AcDbEntity
  8
0
100
AcDbLine
 10
98.41791345203781
 20
151.8971064199562
 30
0.0
 11
101.0443324906931
 21
154.5235254586115
 31
0.0
  0
LINE
  5
650
330
1F
100
AcDbEntity
  8
0
100
AcDbLine
 10
96.0351324642872
 20
149.5518020916085
 30
0.0
 11
97.35746312736113
 21
150.8741327546824
 31
0.0
  0
LINE
  5
651
330
1F
100
AcDbEntity
  8
0
100
AcDbLine
 10
98.41722752082477
 20
151.933897148146
 30
0.0
 11
101.0078124684542
 21
154.5244820957755
 31
0.0
  0
LINE
  5
652
330
1F
100
AcDbEntity
  8
0
100
AcDbLine
 10
95.99765580488433
 20
149.5518020916085
 30
0.0
 11
97.31998646795824
 21
150.8741327546824
 31
0.0
  0
LINE
  5
653
330
1F
100
AcDbEntity
  8
0
100
AcDbLine
 10
98.41669634616763
 20
151.9708426328918
 30
0.0
 11
100.971188314829
 21
154.5253346015531
 31
0.0
  0
LINE
  5
654
330
1F
100
AcDbEntity
  8
0
100
AcDbLine
 10
95.96017914548145
 20
149.5518020916085
 30
0.0
 11
97.28250980855536
 21
150.8741327546824
 31
0.0
  0
LINE
  5
655
330
1F
100
AcDbEntity
  8
0
100
AcDbLine
 10
98.41635431096206
 20
152.0079772570891
 30
0.0
 11
100.9345021212215
 21
154.5261250673486
 31
0.0
  0
LINE
  5
656
330
1F
100
AcDbEntity
  8
0
100
AcDbLine
 10
95.92270248607856
 20
149.5518020916085
 30
0.0
 11
97.24503314915245
 21
150.8741327546824
 31
0.0
  0
LINE
  5
657
330
1F
100
AcDbEntity
  8
0
100
AcDbLine
 10
98.4172231758218
 20
152.0463227813517
 30
0.0
 11
100.8964847059978
 21
154.5255843115277
 31
0.0
  0
LINE
  5
658
330
1F
100
AcDbEntity
  8
0
100
AcDbLine
 10
95.88522582667568
 20
149.5518020916085
 30
0.0
 11
97.20755648974959
 21
150.8741327546824
 31
0.0
  0
LINE
  5
659
330
1F
100
AcDbEntity
  8
0
100
AcDbLine
 10
98.41817454189972
 20
152.0847508068325
 30
0.0
 11
100.8580778454988
 21
154.5246541104316
 31
0.0
  0
LINE
  5
65A
330
1F
100
AcDbEntity
  8
0
100
AcDbLine
 10
95.8477491672728
 20
149.5518020916085
 30
0.0
 11
97.1700798303467
 21
150.8741327546824
 31
0.0
  0
LINE
  5
65B
330
1F
100
AcDbEntity
  8
0
100
AcDbLine
 10
98.41925811306943
 20
152.1233110374051
 30
0.0
 11
100.8195646068714
 21
154.5236175312071
 31
0.0
  0
LINE
  5
65C
330
1F
100
AcDbEntity
  8
0
100
AcDbLine
 10
95.81027250786991
 20
149.5518020916085
 30
0.0
 11
97.13260317094381
 21
150.8741327546824
 31
0.0
  0
LINE
  5
65D
330
1F
100
AcDbEntity
  8
0
100
AcDbLine
 10
98.42052661193209
 20
152.1620561956707
 30
0.0
 11
100.7808910028022
 21
154.5224205865407
 31
0.0
  0
LINE
  5
65E
330
1F
100
AcDbEntity
  8
0
100
AcDbLine
 10
95.77279584846703
 20
149.5518020916085
 30
0.0
 11
97.09512651154091
 21
150.8741327546824
 31
0.0
  0
LINE
  5
65F
330
1F
100
AcDbEntity
  8
0
100
AcDbLine
 10
98.42203733874848
 20
152.2010435818899
 30
0.0
 11
100.7419300919876
 21
154.5209363351291
 31
0.0
  0
LINE
  5
660
330
1F
100
AcDbEntity
  8
0
100
AcDbLine
 10
95.73531918906414
 20
149.5518020916085
 30
0.0
 11
97.05764985213803
 21
150.8741327546824
 31
0.0
  0
LINE
  5
661
330
1F
100
AcDbEntity
  8
0
100
AcDbLine
 10
98.42392564650461
 20
152.240408549049
 30
0.0
 11
100.7026204157439
 21
154.5191033182882
 31
0.0
  0
LINE
  5
662
330
1F
100
AcDbEntity
  8
0
100
AcDbLine
 10
95.69784252966126
 20
149.5518020916085
 30
0.0
 11
97.02017319273514
 21
150.8741327546824
 31
0.0
  0
LINE
  5
663
330
1F
100
AcDbEntity
  8
0
100
AcDbLine
 10
98.42627370718971
 20
152.2802332691369
 30
0.0
 11
100.6629100719669
 21
154.5168696339142
 31
0.0
  0
LINE
  5
664
330
1F
100
AcDbEntity
  8
0
100
AcDbLine
 10
95.66036587025837
 20
149.5518020916085
 30
0.0
 11
96.98269653333227
 21
150.8741327546824
 31
0.0
  0
LINE
  5
665
330
1F
100
AcDbEntity
  8
0
100
AcDbLine
 10
98.42910319309989
 20
152.32053941445
 30
0.0
 11
100.6227317357175
 21
154.5141679570676
 31
0.0
  0
LINE
  5
666
330
1F
100
AcDbEntity
  8
0
100
AcDbLine
 10
95.62288921085549
 20
149.5518020916085
 30
0.0
 11
96.94521987392939
 21
150.8741327546824
 31
0.0
  0
LINE
  5
667
330
1F
100
AcDbEntity
  8
0
100
AcDbLine
 10
98.43249112514401
 20
152.361404005897
 30
0.0
 11
100.5819910505685
 21
154.5109039313215
 31
0.0
  0
LINE
  5
668
330
1F
100
AcDbEntity
  8
0
100
AcDbLine
 10
95.5854125514526
 20
149.5518020916085
 30
0.0
 11
96.90774321452649
 21
150.8741327546824
 31
0.0
  0
LINE
  5
669
330
1F
100
AcDbEntity
  8
0
100
AcDbLine
 10
98.43647027431685
 20
152.4028598144727
 30
0.0
 11
100.5406544133512
 21
154.5070439535071
 31
0.0
  0
LINE
  5
66A
330
1F
100
AcDbEntity
  8
0
100
AcDbLine
 10
95.54793589204974
 20
149.5518020916085
 30
0.0
 11
96.87026655512362
 21
150.8741327546824
 31
0.0
  0
LINE
  5
66B
330
1F
100
AcDbEntity
  8
0
100
AcDbLine
 10
98.44107666253527
 20
152.444942862094
 30
0.0
 11
100.4986847484744
 21
154.5025509480332
 31
0.0
  0
LINE
  5
66C
330
1F
100
AcDbEntity
  8
0
100
AcDbLine
 10
95.51045923264685
 20
149.5518020916085
 30
0.0
 11
96.83278989572072
 21
150.8741327546824
 31
0.0
  0
LINE
  5
66D
330
1F
100
AcDbEntity
  8
0
100
AcDbLine
 10
98.44635011027468
 20
152.4876929692363
 30
0.0
 11
100.4560409801561
 21
154.4973838391177
 31
0.0
  0
LINE
  5
66E
330
1F
100
AcDbEntity
  8
0
100
AcDbLine
 10
95.47298257324395
 20
149.5518020916085
 30
0.0
 11
96.79531323631785
 21
150.8741327546824
 31
0.0
  0
LINE
  5
66F
330
1F
100
AcDbEntity
  8
0
100
AcDbLine
 10
98.45233476487547
 20
152.53115428324
 30
0.0
 11
100.4126774656763
 21
154.4914969840408
 31
0.0
  0
LINE
  5
670
330
1F
100
AcDbEntity
  8
0
100
AcDbLine
 10
95.43550591384107
 20
149.5518020916085
 30
0.0
 11
96.75783657691497
 21
150.8741327546824
 31
0.0
  0
LINE
  5
671
330
1F
100
AcDbEntity
  8
0
100
AcDbLine
 10
98.45909232141038
 20
152.5753884991778
 30
0.0
 11
100.3685423034654
 21
154.4848384812328
 31
0.0
  0
LINE
  5
672
330
1F
100
AcDbEntity
  8
0
100
AcDbLine
 10
95.39802925443819
 20
149.5518020916085
 30
0.0
 11
96.72035991751208
 21
150.8741327546824
 31
0.0
  0
LINE
  5
673
330
1F
100
AcDbEntity
  8
0
100
AcDbLine
 10
98.46659822648401
 20
152.6203710636543
 30
0.0
 11
100.3235346480072
 21
154.4773074851774
 31
0.0
  0
LINE
  5
674
330
1F
100
AcDbEntity
  8
0
100
AcDbLine
 10
95.3605525950353
 20
149.5518020916085
 30
0.0
 11
96.6828832581092
 21
150.8741327546824
 31
0.0
  0
LINE
  5
675
330
1F
100
AcDbEntity
  8
0
100
AcDbLine
 10
98.47505263918276
 20
152.666302135756
 30
0.0
 11
100.27764288353
 21
154.4688923801032
 31
0.0
  0
LINE
  5
676
330
1F
100
AcDbEntity
  8
0
100
AcDbLine
 10
95.32307593563242
 20
149.5518020916085
 30
0.0
 11
96.6454065987063
 21
150.8741327546824
 31
0.0
  0
LINE
  5
677
330
1F
100
AcDbEntity
  8
0
100
AcDbLine
 10
98.48450036508923
 20
152.7132265210653
 30
0.0
 11
100.2307990969827
 21
154.4595252529588
 31
0.0
  0
LINE
  5
678
330
1F
100
AcDbEntity
  8
0
100
AcDbLine
 10
95.28559927622953
 20
149.5518020916085
 30
0.0
 11
96.60792993930343
 21
150.8741327546824
 31
0.0
  0
LINE
  5
679
330
1F
100
AcDbEntity
  8
0
100
AcDbLine
 10
98.494990273807
 20
152.761193089186
 30
0.0
 11
100.1829069985927
 21
154.4491098139717
 31
0.0
  0
LINE
  5
67A
330
1F
100
AcDbEntity
  8
0
100
AcDbLine
 10
95.24812261682665
 20
149.5518020916085
 30
0.0
 11
96.57045327990055
 21
150.8741327546824
 31
0.0
  0
LINE
  5
67B
330
1F
100
AcDbEntity
  8
0
100
AcDbLine
 10
98.50663637288677
 20
152.8103158476686
 30
0.0
 11
100.1338545822646
 21
154.4375340570464
 31
0.0
  0
LINE
  5
67C
330
1F
100
AcDbEntity
  8
0
100
AcDbLine
 10
95.21064595742376
 20
149.5518020916085
 30
0.0
 11
96.53297662049766
 21
150.8741327546824
 31
0.0
  0
LINE
  5
67D
330
1F
100
AcDbEntity
  8
0
100
AcDbLine
 10
98.51955205062875
 20
152.8607081848135
 30
0.0
 11
100.0835263419883
 21
154.424682476173
 31
0.0
  0
LINE
  5
67E
330
1F
100
AcDbEntity
  8
0
100
AcDbLine
 10
95.17316929802088
 20
149.5518020916085
 30
0.0
 11
96.49549996109478
 21
150.8741327546824
 31
0.0
  0
LINE
  5
67F
330
1F
100
AcDbEntity
  8
0
100
AcDbLine
 10
98.53393069968922
 20
152.9125634932768
 30
0.0
 11
100.0317379231274
 21
154.410370716715
 31
0.0
  0
LINE
  5
680
330
1F
100
AcDbEntity
  8
0
100
AcDbLine
 10
95.13569263861801
 20
149.5518020916085
 30
0.0
 11
96.4580233016919
 21
150.8741327546824
 31
0.0
  0
LINE
  5
681
330
1F
100
AcDbEntity
  8
0
100
AcDbLine
 10
98.5499682690779
 20
152.9660777220684
 30
0.0
 11
99.97830545088915
 21
154.3944149038796
 31
0.0
  0
LINE
  5
682
330
1F
100
AcDbEntity
  8
0
100
AcDbLine
 10
95.09821597921511
 20
149.5518020916085
 30
0.0
 11
96.42054664228903
 21
150.8741327546824
 31
0.0
  0
LINE
  5
683
330
1F
100
AcDbEntity
  8
0
100
AcDbLine
 10
98.56811092997256
 20
153.0216970423659
 30
0.0
 11
99.92299378604399
 21
154.3765798984374
 31
0.0
  0
LINE
  5
684
330
1F
100
AcDbEntity
  8
0
100
AcDbLine
 10
95.06073931981224
 20
149.5518020916085
 30
0.0
 11
96.38306998288613
 21
150.8741327546824
 31
0.0
  0
LINE
  5
685
330
1F
100
AcDbEntity
  8
0
100
AcDbLine
 10
98.58865889278748
 20
153.0797216645838
 30
0.0
 11
99.86515592158783
 21
154.3562186933841
 31
0.0
  0
LINE
  5
686
330
1F
100
AcDbEntity
  8
0
100
AcDbLine
 10
95.02326266040936
 20
149.5518020916085
 30
0.0
 11
96.34559332348324
 21
150.8741327546824
 31
0.0
  0
LINE
  5
687
330
1F
100
AcDbEntity
  8
0
100
AcDbLine
 10
98.61194103079279
 20
153.1404804619919
 30
0.0
 11
99.80460291024451
 21
154.3331423414437
 31
0.0
  0
LINE
  5
688
330
1F
100
AcDbEntity
  8
0
100
AcDbLine
 10
94.98578600100647
 20
149.5518020916085
 30
0.0
 11
96.30811666408037
 21
150.8741327546824
 31
0.0
  0
LINE
  5
689
330
1F
100
AcDbEntity
  8
0
100
AcDbLine
 10
98.63861557729263
 20
153.2046316678947
 30
0.0
 11
99.74086351075881
 21
154.3068796013608
 31
0.0
  0
LINE
  5
68A
330
1F
100
AcDbEntity
  8
0
100
AcDbLine
 10
94.94830934160358
 20
149.5518020916085
 30
0.0
 11
96.27064000467747
 21
150.8741327546824
 31
0.0
  0
LINE
  5
68B
330
1F
100
AcDbEntity
  8
0
100
AcDbLine
 10
98.66978877609507
 20
153.2732815261
 30
0.0
 11
99.67205547896285
 21
154.2755482289678
 31
0.0
  0
LINE
  5
68C
330
1F
100
AcDbEntity
  8
0
100
AcDbLine
 10
94.9108326822007
 20
149.5518020916085
 30
0.0
 11
96.23316334527459
 21
150.8741327546824
 31
0.0
  0
LINE
  5
68D
330
1F
100
AcDbEntity
  8
0
100
AcDbLine
 10
98.70661958918821
 20
153.347588998596
 30
0.0
 11
99.59722238065282
 21
154.2381917900606
 31
0.0
  0
LINE
  5
68E
330
1F
100
AcDbEntity
  8
0
100
AcDbLine
 10
94.87335602279782
 20
149.5518020916085
 30
0.0
 11
96.1956866858717
 21
150.8741327546824
 31
0.0
  0
LINE
  5
68F
330
1F
100
AcDbEntity
  8
0
100
AcDbLine
 10
98.75187487162951
 20
153.4303209404402
 30
0.0
 11
99.51337359566105
 21
154.1918196644717
 31
0.0
  0
LINE
  5
690
330
1F
100
AcDbEntity
  8
0
100
AcDbLine
 10
94.83587936339494
 20
149.5518020916085
 30
0.0
 11
96.15821002646882
 21
150.8741327546824
 31
0.0
  0
LINE
  5
691
330
1F
100
AcDbEntity
  8
0
100
AcDbLine
 10
98.81170867310246
 20
153.527631401316
 30
0.0
 11
99.41590063083417
 21
154.1318233590477
 31
0.0
  0
LINE
  5
692
330
1F
100
AcDbEntity
  8
0
100
AcDbLine
 10
94.79840270399202
 20
149.5518020916085
 30
0.0
 11
96.12073336706594
 21
150.8741327546824
 31
0.0
  0
LINE
  5
693
330
1F
100
AcDbEntity
  8
0
100
AcDbLine
 10
98.90556967055774
 20
153.6589690581742
 30
0.0
 11
99.29001430305655
 21
154.043413690673
 31
0.0
  0
LINE
  5
694
330
1F
100
AcDbEntity
  8
0
100
AcDbLine
 10
94.76092604458917
 20
149.5518020916085
 30
0.0
 11
96.08325670766305
 21
150.8741327546824
 31
0.0
  0
LINE
  5
695
330
1F
100
AcDbEntity
  8
0
100
AcDbLine
 10
94.72344938518629
 20
149.5518020916085
 30
0.0
 11
96.04578004826016
 21
150.8741327546824
 31
0.0
  0
LINE
  5
696
330
1F
100
AcDbEntity
  8
0
100
AcDbLine
 10
94.6859727257834
 20
149.5518020916085
 30
0.0
 11
96.0083033888573
 21
150.8741327546824
 31
0.0
  0
LINE
  5
697
330
1F
100
AcDbEntity
  8
0
100
AcDbLine
 10
94.64849606638052
 20
149.5518020916085
 30
0.0
 11
95.97082672945439
 21
150.8741327546824
 31
0.0
  0
LINE
  5
698
330
1F
100
AcDbEntity
  8
0
100
AcDbLine
 10
94.61101940697763
 20
149.5518020916085
 30
0.0
 11
95.9333500700515
 21
150.8741327546824
 31
0.0
  0
LINE
  5
699
330
1F
100
AcDbEntity
  8
0
100
AcDbLine
 10
94.57354274757475
 20
149.5518020916085
 30
0.0
 11
95.89587341064865
 21
150.8741327546824
 31
0.0
  0
LINE
  5
69A
330
1F
100
AcDbEntity
  8
0
100
AcDbLine
 10
94.53606608817186
 20
149.5518020916085
 30
0.0
 11
95.85839675124576
 21
150.8741327546824
 31
0.0
  0
LINE
  5
69B
330
1F
100
AcDbEntity
  8
0
100
AcDbLine
 10
94.49858942876898
 20
149.5518020916085
 30
0.0
 11
95.82092009184285
 21
150.8741327546824
 31
0.0
  0
LINE
  5
69C
330
1F
100
AcDbEntity
  8
0
100
AcDbLine
 10
94.46111276936608
 20
149.5518020916085
 30
0.0
 11
95.78344343243997
 21
150.8741327546824
 31
0.0
  0
LINE
  5
69D
330
1F
100
AcDbEntity
  8
0
100
AcDbLine
 10
94.4236361099632
 20
149.5518020916085
 30
0.0
 11
95.74596677303711
 21
150.8741327546824
 31
0.0
  0
LINE
  5
69E
330
1F
100
AcDbEntity
  8
0
100
AcDbLine
 10
94.38615945056031
 20
149.5518020916085
 30
0.0
 11
95.7086489494318
 21
150.87429159048
 31
0.0
  0
LINE
  5
69F
330
1F
100
AcDbEntity
  8
0
100
AcDbLine
 10
94.34868279115743
 20
149.5518020916085
 30
0.0
 11
95.70864894943178
 21
150.9117682498828
 31
0.0
  0
LINE
  5
6A0
330
1F
100
AcDbEntity
  8
0
100
AcDbLine
 10
94.31120613175455
 20
149.5518020916085
 30
0.0
 11
95.70864894943178
 21
150.9492449092857
 31
0.0
  0
LINE
  5
6A1
330
1F
100
AcDbEntity
  8
0
100
AcDbLine
 10
94.27372947235166
 20
149.5518020916085
 30
0.0
 11
95.70864894943179
 21
150.9867215686886
 31
0.0
  0
LINE
  5
6A2
330
1F
100
AcDbEntity
  8
0
100
AcDbLine
 10
94.23625281294878
 20
149.5518020916085
 30
0.0
 11
95.70864894943179
 21
151.0241982280915
 31
0.0
  0
LINE
  5
6A3
330
1F
100
AcDbEntity
  8
0
100
AcDbLine
 10
94.1987761535459
 20
149.5518020916085
 30
0.0
 11
95.70864894943179
 21
151.0616748874944
 31
0.0
  0
LINE
  5
6A4
330
1F
100
AcDbEntity
  8
0
100
AcDbLine
 10
94.16129949414301
 20
149.5518020916085
 30
0.0
 11
95.70864894943179
 21
151.0991515468973
 31
0.0
  0
LINE
  5
6A5
330
1F
100
AcDbEntity
  8
0
100
AcDbLine
 10
94.12382283474012
 20
149.5518020916085
 30
0.0
 11
95.70864894943179
 21
151.1366282063001
 31
0.0
  0
LINE
  5
6A6
330
1F
100
AcDbEntity
  8
0
100
AcDbLine
 10
94.08634617533724
 20
149.5518020916085
 30
0.0
 11
95.70864894943179
 21
151.174104865703
 31
0.0
  0
LINE
  5
6A7
330
1F
100
AcDbEntity
  8
0
100
AcDbLine
 10
94.04886951593436
 20
149.5518020916085
 30
0.0
 11
95.70864894943179
 21
151.2115815251059
 31
0.0
  0
LINE
  5
6A8
330
1F
100
AcDbEntity
  8
0
100
AcDbLine
 10
94.01139285653147
 20
149.5518020916085
 30
0.0
 11
95.70864894943179
 21
151.2490581845088
 31
0.0
  0
LINE
  5
6A9
330
1F
100
AcDbEntity
  8
0
100
AcDbLine
 10
94.00850944831811
 20
149.586395342798
 30
0.0
 11
95.70864894943179
 21
151.2865348439117
 31
0.0
  0
LINE
  5
6AA
330
1F
100
AcDbEntity
  8
0
100
AcDbLine
 10
94.0085094483181
 20
149.6238720022009
 30
0.0
 11
95.70864894943179
 21
151.3240115033146
 31
0.0
  0
LINE
  5
6AB
330
1F
100
AcDbEntity
  8
0
100
AcDbLine
 10
94.0085094483181
 20
149.6613486616038
 30
0.0
 11
95.70864894943179
 21
151.3614881627174
 31
0.0
  0
LINE
  5
6AC
330
1F
100
AcDbEntity
  8
0
100
AcDbLine
 10
94.00850944831812
 20
149.6988253210067
 30
0.0
 11
95.70864894943179
 21
151.3989648221203
 31
0.0
  0
LINE
  5
6AD
330
1F
100
AcDbEntity
  8
0
100
AcDbLine
 10
94.0085094483181
 20
149.7363019804095
 30
0.0
 11
95.70864894943179
 21
151.4364414815232
 31
0.0
  0
LINE
  5
6AE
330
1F
100
AcDbEntity
  8
0
100
AcDbLine
 10
94.0085094483181
 20
149.7737786398124
 30
0.0
 11
95.70864894943179
 21
151.4739181409261
 31
0.0
  0
LINE
  5
6AF
330
1F
100
AcDbEntity
  8
0
100
AcDbLine
 10
94.0085094483181
 20
149.8112552992153
 30
0.0
 11
95.70864894943179
 21
151.511394800329
 31
0.0
  0
LINE
  5
6B0
330
1F
100
AcDbEntity
  8
0
100
AcDbLine
 10
94.0085094483181
 20
149.8487319586182
 30
0.0
 11
95.70864894943179
 21
151.5488714597319
 31
0.0
  0
LINE
  5
6B1
330
1F
100
AcDbEntity
  8
0
100
AcDbLine
 10
94.00850944831812
 20
149.8862086180211
 30
0.0
 11
95.70864894943179
 21
151.5863481191348
 31
0.0
  0
LINE
  5
6B2
330
1F
100
AcDbEntity
  8
0
100
AcDbLine
 10
94.0085094483181
 20
149.9236852774239
 30
0.0
 11
95.70864894943179
 21
151.6238247785377
 31
0.0
  0
LINE
  5
6B3
330
1F
100
AcDbEntity
  8
0
100
AcDbLine
 10
94.0085094483181
 20
149.9611619368268
 30
0.0
 11
95.70864894943179
 21
151.6613014379405
 31
0.0
  0
LINE
  5
6B4
330
1F
100
AcDbEntity
  8
0
100
AcDbLine
 10
94.00850944831812
 20
149.9986385962297
 30
0.0
 11
95.70864894943179
 21
151.6987780973434
 31
0.0
  0
LINE
  5
6B5
330
1F
100
AcDbEntity
  8
0
100
AcDbLine
 10
94.0085094483181
 20
150.0361152556326
 30
0.0
 11
95.70864894943179
 21
151.7362547567463
 31
0.0
  0
LINE
  5
6B6
330
1F
100
AcDbEntity
  8
0
100
AcDbLine
 10
94.0085094483181
 20
150.0735919150355
 30
0.0
 11
95.70864894943178
 21
151.7737314161492
 31
0.0
  0
LINE
  5
6B7
330
1F
100
AcDbEntity
  8
0
100
AcDbLine
 10
94.00850944831811
 20
150.1110685744384
 30
0.0
 11
95.70864894943178
 21
151.8112080755521
 31
0.0
  0
LINE
  5
6B8
330
1F
100
AcDbEntity
  8
0
100
AcDbLine
 10
94.00850944831811
 20
150.1485452338413
 30
0.0
 11
95.70864894943179
 21
151.848684734955
 31
0.0
  0
LINE
  5
6B9
330
1F
100
AcDbEntity
  8
0
100
AcDbLine
 10
94.00850944831811
 20
150.1860218932441
 30
0.0
 11
95.70864894943179
 21
151.8861613943578
 31
0.0
  0
LINE
  5
6BA
330
1F
100
AcDbEntity
  8
0
100
AcDbLine
 10
94.00850944831811
 20
150.223498552647
 30
0.0
 11
95.70864894943179
 21
151.9236380537607
 31
0.0
  0
LINE
  5
6BB
330
1F
100
AcDbEntity
  8
0
100
AcDbLine
 10
94.00850944831811
 20
150.2609752120499
 30
0.0
 11
95.70864894943179
 21
151.9611147131636
 31
0.0
  0
LINE
  5
6BC
330
1F
100
AcDbEntity
  8
0
100
AcDbLine
 10
94.00850944831812
 20
150.2984518714528
 30
0.0
 11
95.70864894943178
 21
151.9985913725665
 31
0.0
  0
LINE
  5
6BD
330
1F
100
AcDbEntity
  8
0
100
AcDbLine
 10
94.00850944831811
 20
150.3359285308557
 30
0.0
 11
95.70864894943179
 21
152.0360680319694
 31
0.0
  0
LINE
  5
6BE
330
1F
100
AcDbEntity
  8
0
100
AcDbLine
 10
94.00850944831812
 20
150.3734051902586
 30
0.0
 11
95.70864894943179
 21
152.0735446913723
 31
0.0
  0
LINE
  5
6BF
330
1F
100
AcDbEntity
  8
0
100
AcDbLine
 10
94.00850944831811
 20
150.4108818496615
 30
0.0
 11
95.70864894943178
 21
152.1110213507751
 31
0.0
  0
LINE
  5
6C0
330
1F
100
AcDbEntity
  8
0
100
AcDbLine
 10
94.00850944831811
 20
150.4483585090643
 30
0.0
 11
95.70864894943178
 21
152.148498010178
 31
0.0
  0
LINE
  5
6C1
330
1F
100
AcDbEntity
  8
0
100
AcDbLine
 10
94.00850944831811
 20
150.4858351684672
 30
0.0
 11
95.70864894943178
 21
152.1859746695809
 31
0.0
  0
LINE
  5
6C2
330
1F
100
AcDbEntity
  8
0
100
AcDbLine
 10
94.00850944831811
 20
150.5233118278701
 30
0.0
 11
95.7086489494318
 21
152.2234513289838
 31
0.0
  0
LINE
  5
6C3
330
1F
100
AcDbEntity
  8
0
100
AcDbLine
 10
94.00850944831811
 20
150.560788487273
 30
0.0
 11
95.7086489494318
 21
152.2609279883867
 31
0.0
  0
LINE
  5
6C4
330
1F
100
AcDbEntity
  8
0
100
AcDbLine
 10
94.00850944831811
 20
150.5982651466759
 30
0.0
 11
95.70864894943178
 21
152.2984046477895
 31
0.0
  0
LINE
  5
6C5
330
1F
100
AcDbEntity
  8
0
100
AcDbLine
 10
94.00850944831811
 20
150.6357418060788
 30
0.0
 11
95.7086489494318
 21
152.3358813071925
 31
0.0
  0
LINE
  5
6C6
330
1F
100
AcDbEntity
  8
0
100
AcDbLine
 10
94.0085094483181
 20
150.6732184654816
 30
0.0
 11
95.70864894943178
 21
152.3733579665953
 31
0.0
  0
LINE
  5
6C7
330
1F
100
AcDbEntity
  8
0
100
AcDbLine
 10
94.00850944831811
 20
150.7106951248845
 30
0.0
 11
95.7086489494318
 21
152.4108346259982
 31
0.0
  0
LINE
  5
6C8
330
1F
100
AcDbEntity
  8
0
100
AcDbLine
 10
94.00850944831811
 20
150.7481717842874
 30
0.0
 11
95.70864894943178
 21
152.4483112854011
 31
0.0
  0
LINE
  5
6C9
330
1F
100
AcDbEntity
  8
0
100
AcDbLine
 10
94.00850944831811
 20
150.7856484436903
 30
0.0
 11
95.70864894943178
 21
152.485787944804
 31
0.0
  0
LINE
  5
6CA
330
1F
100
AcDbEntity
  8
0
100
AcDbLine
 10
94.00850944831811
 20
150.8231251030932
 30
0.0
 11
95.70864894943178
 21
152.5232646042069
 31
0.0
  0
LINE
  5
6CB
330
1F
100
AcDbEntity
  8
0
100
AcDbLine
 10
94.0085094483181
 20
150.8606017624961
 30
0.0
 11
95.70864894943178
 21
152.5607412636097
 31
0.0
  0
LINE
  5
6CC
330
1F
100
AcDbEntity
  8
0
100
AcDbLine
 10
94.00850944831811
 20
150.898078421899
 30
0.0
 11
95.70864894943179
 21
152.5982179230126
 31
0.0
  0
LINE
  5
6CD
330
1F
100
AcDbEntity
  8
0
100
AcDbLine
 10
94.0085094483181
 20
150.9355550813018
 30
0.0
 11
95.70864894943179
 21
152.6356945824155
 31
0.0
  0
LINE
  5
6CE
330
1F
100
AcDbEntity
  8
0
100
AcDbLine
 10
94.00850944831811
 20
150.9730317407047
 30
0.0
 11
95.7086489494318
 21
152.6731712418184
 31
0.0
  0
LINE
  5
6CF
330
1F
100
AcDbEntity
  8
0
100
AcDbLine
 10
94.0085094483181
 20
151.0105084001076
 30
0.0
 11
95.70864894943179
 21
152.7106479012213
 31
0.0
  0
LINE
  5
6D0
330
1F
100
AcDbEntity
  8
0
100
AcDbLine
 10
94.0085094483181
 20
151.0479850595105
 30
0.0
 11
95.70864894943179
 21
152.7481245606242
 31
0.0
  0
LINE
  5
6D1
330
1F
100
AcDbEntity
  8
0
100
AcDbLine
 10
94.0085094483181
 20
151.0854617189134
 30
0.0
 11
95.70864894943179
 21
152.785601220027
 31
0.0
  0
LINE
  5
6D2
330
1F
100
AcDbEntity
  8
0
100
AcDbLine
 10
94.00850944831811
 20
151.1229383783163
 30
0.0
 11
95.70864894943179
 21
152.8230778794299
 31
0.0
  0
LINE
  5
6D3
330
1F
100
AcDbEntity
  8
0
100
AcDbLine
 10
94.00850944831811
 20
151.1604150377192
 30
0.0
 11
95.70864894943179
 21
152.8605545388328
 31
0.0
  0
LINE
  5
6D4
330
1F
100
AcDbEntity
  8
0
100
AcDbLine
 10
94.0085094483181
 20
151.197891697122
 30
0.0
 11
95.70864894943179
 21
152.8980311982357
 31
0.0
  0
LINE
  5
6D5
330
1F
100
AcDbEntity
  8
0
100
AcDbLine
 10
94.0085094483181
 20
151.2353683565249
 30
0.0
 11
95.70864894943179
 21
152.9355078576386
 31
0.0
  0
LINE
  5
6D6
330
1F
100
AcDbEntity
  8
0
100
AcDbLine
 10
94.0085094483181
 20
151.2728450159278
 30
0.0
 11
95.70864894943179
 21
152.9729845170415
 31
0.0
  0
LINE
  5
6D7
330
1F
100
AcDbEntity
  8
0
100
AcDbLine
 10
94.0085094483181
 20
151.3103216753307
 30
0.0
 11
95.70864894943179
 21
153.0104611764444
 31
0.0
  0
LINE
  5
6D8
330
1F
100
AcDbEntity
  8
0
100
AcDbLine
 10
94.00850944831812
 20
151.3477983347336
 30
0.0
 11
95.70864894943179
 21
153.0479378358473
 31
0.0
  0
LINE
  5
6D9
330
1F
100
AcDbEntity
  8
0
100
AcDbLine
 10
94.00850944831812
 20
151.3852749941365
 30
0.0
 11
95.70864894943179
 21
153.0854144952501
 31
0.0
  0
LINE
  5
6DA
330
1F
100
AcDbEntity
  8
0
100
AcDbLine
 10
92.58163456887193
 20
149.9958767740932
 30
0.0
 11
92.74089693461575
 21
150.155139139837
 31
0.0
  0
LINE
  5
6DB
330
1F
100
AcDbEntity
  8
0
100
AcDbLine
 10
94.0085094483181
 20
151.4227516535393
 30
0.0
 11
95.70864894943179
 21
153.122891154653
 31
0.0
  0
LINE
  5
6DC
330
1F
100
AcDbEntity
  8
0
100
AcDbLine
 10
92.40947178599617
 20
149.8611906506203
 30
0.0
 11
92.87873896388857
 21
150.3304578285127
 31
0.0
  0
LINE
  5
6DD
330
1F
100
AcDbEntity
  8
0
100
AcDbLine
 10
94.0085094483181
 20
151.4602283129422
 30
0.0
 11
95.70864894943179
 21
153.1603678140559
 31
0.0
  0
LINE
  5
6DE
330
1F
100
AcDbEntity
  8
0
100
AcDbLine
 10
92.30416427624637
 20
149.7933598002734
 30
0.0
 11
92.94838776235535
 21
150.4375832863823
 31
0.0
  0
LINE
  5
6DF
330
1F
100
AcDbEntity
  8
0
100
AcDbLine
 10
94.00850944831812
 20
151.4977049723451
 30
0.0
 11
95.70864894943179
 21
153.1978444734588
 31
0.0
  0
LINE
  5
6E0
330
1F
100
AcDbEntity
  8
0
100
AcDbLine
 10
92.2186960569715
 20
149.7453682404014
 30
0.0
 11
92.9991238182059
 21
150.5257960016358
 31
0.0
  0
LINE
  5
6E1
330
1F
100
AcDbEntity
  8
0
100
AcDbLine
 10
94.0085094483181
 20
151.535181631748
 30
0.0
 11
95.70864894943179
 21
153.2353211328617
 31
0.0
  0
LINE
  5
6E2
330
1F
100
AcDbEntity
  8
0
100
AcDbLine
 10
92.14247229923295
 20
149.7066211420657
 30
0.0
 11
93.03923831432515
 21
150.6033871571579
 31
0.0
  0
LINE
  5
6E3
330
1F
100
AcDbEntity
  8
0
100
AcDbLine
 10
94.0085094483181
 20
151.5726582911509
 30
0.0
 11
95.70864894943179
 21
153.2727977922646
 31
0.0
  0
LINE
  5
6E4
330
1F
100
AcDbEntity
  8
0
100
AcDbLine
 10
92.07367855101232
 20
149.675304053248
 30
0.0
 11
93.07247005969887
 21
150.6740955619345
 31
0.0
  0
LINE
  5
6E5
330
1F
100
AcDbEntity
  8
0
100
AcDbLine
 10
94.0085094483181
 20
151.6101349505537
 30
0.0
 11
95.70864894943179
 21
153.3102744516674
 31
0.0
  0
LINE
  5
6E6
330
1F
100
AcDbEntity
  8
0
100
AcDbLine
 10
92.01101305922833
 20
149.6501152208669
 30
0.0
 11
93.10094647508254
 21
150.7400486367211
 31
0.0
  0
LINE
  5
6E7
330
1F
100
AcDbEntity
  8
0
100
AcDbLine
 10
94.0085094483181
 20
151.6476116099566
 30
0.0
 11
95.70864894943179
 21
153.3477511110703
 31
0.0
  0
LINE
  5
6E8
330
1F
100
AcDbEntity
  8
0
100
AcDbLine
 10
91.95214843193901
 20
149.6287272529804
 30
0.0
 11
93.12576003293984
 21
150.8023388539812
 31
0.0
  0
LINE
  5
6E9
330
1F
100
AcDbEntity
  8
0
100
AcDbLine
 10
94.0085094483181
 20
151.6850882693595
 30
0.0
 11
95.70864894943179
 21
153.3852277704732
 31
0.0
  0
LINE
  5
6EA
330
1F
100
AcDbEntity
  8
0
100
AcDbLine
 10
91.89605999015032
 20
149.6101154705946
 30
0.0
 11
93.14748629205745
 21
150.8615417725017
 31
0.0
  0
LINE
  5
6EB
330
1F
100
AcDbEntity
  8
0
100
AcDbLine
 10
94.00850944831811
 20
151.7225649287624
 30
0.0
 11
95.70864894943178
 21
153.4227044298761
 31
0.0
  0
LINE
  5
6EC
330
1F
100
AcDbEntity
  8
0
100
AcDbLine
 10
91.84230830366944
 20
149.5938404435166
 30
0.0
 11
93.16690673424628
 21
150.9184388740935
 31
0.0
  0
LINE
  5
6ED
330
1F
100
AcDbEntity
  8
0
100
AcDbLine
 10
94.00850944831811
 20
151.7600415881653
 30
0.0
 11
95.70864894943179
 21
153.460181089279
 31
0.0
  0
LINE
  5
6EE
330
1F
100
AcDbEntity
  8
0
100
AcDbLine
 10
91.79050564330929
 20
149.5795144425593
 30
0.0
 11
93.1846532667883
 21
150.9736620660384
 31
0.0
  0
LINE
  5
6EF
330
1F
100
AcDbEntity
  8
0
100
AcDbLine
 10
94.00850944831812
 20
151.7975182475682
 30
0.0
 11
95.70864894943179
 21
153.4976577486819
 31
0.0
  0
LINE
  5
6F0
330
1F
100
AcDbEntity
  8
0
100
AcDbLine
 10
91.74051508591668
 20
149.5670005445696
 30
0.0
 11
93.2010282098334
 21
151.0275136684863
 31
0.0
  0
LINE
  5
6F1
330
1F
100
AcDbEntity
  8
0
100
AcDbLine
 10
94.00850944831812
 20
151.8349949069711
 30
0.0
 11
95.70864894943179
 21
153.5351344080847
 31
0.0
  0
LINE
  5
6F2
330
1F
100
AcDbEntity
  8
0
100
AcDbLine
 10
91.69240430062801
 20
149.5563664186838
 30
0.0
 11
93.21585962167552
 21
151.0798217397314
 31
0.0
  0
LINE
  5
6F3
330
1F
100
AcDbEntity
  8
0
100
AcDbLine
 10
94.00850944831811
 20
151.8724715663739
 30
0.0
 11
95.70864894943179
 21
153.5726110674876
 31
0.0
  0
LINE
  5
6F4
330
1F
100
AcDbEntity
  8
0
100
AcDbLine
 10
91.64551143338612
 20
149.5469502108448
 30
0.0
 11
93.22915275978815
 21
151.1305915372469
 31
0.0
  0
LINE
  5
6F5
330
1F
100
AcDbEntity
  8
0
100
AcDbLine
 10
94.00850944831811
 20
151.9099482257768
 30
0.0
 11
95.70864894943179
 21
153.6100877268905
 31
0.0
  0
LINE
  5
6F6
330
1F
100
AcDbEntity
  8
0
100
AcDbLine
 10
91.5994912114394
 20
149.538406648301
 30
0.0
 11
93.2414204561024
 21
151.180335892964
 31
0.0
  0
LINE
  5
6F7
330
1F
100
AcDbEntity
  8
0
100
AcDbLine
 10
94.00850944831811
 20
151.9474248851797
 30
0.0
 11
95.70864894943179
 21
153.6475643862934
 31
0.0
  0
LINE
  5
6F8
330
1F
100
AcDbEntity
  8
0
100
AcDbLine
 10
91.5541761424256
 20
149.5305682386901
 30
0.0
 11
93.2521386788722
 21
151.2285307751367
 31
0.0
  0
LINE
  5
6F9
330
1F
100
AcDbEntity
  8
0
100
AcDbLine
 10
94.00850944831811
 20
151.9849015445826
 30
0.0
 11
95.7086489494318
 21
153.6850410456963
 31
0.0
  0
LINE
  5
6FA
330
1F
100
AcDbEntity
  8
0
100
AcDbLine
 10
91.50960697821155
 20
149.5234757338789
 30
0.0
 11
93.2225968749613
 21
151.2364656306287
 31
0.0
  0
LINE
  5
6FB
330
1F
100
AcDbEntity
  8
0
100
AcDbLine
 10
94.00850944831811
 20
152.0223782039855
 30
0.0
 11
95.7086489494318
 21
153.7225177050992
 31
0.0
  0
LINE
  5
6FC
330
1F
100
AcDbEntity
  8
0
100
AcDbLine
 10
91.46594601369235
 20
149.5172914287626
 30
0.0
 11
93.19305507105041
 21
151.2444004861207
 31
0.0
  0
LINE
  5
6FD
330
1F
100
AcDbEntity
  8
0
100
AcDbLine
 10
94.00850944831811
 20
152.0598548633884
 30
0.0
 11
95.70864894943178
 21
153.759994364502
 31
0.0
  0
LINE
  5
6FE
330
1F
100
AcDbEntity
  8
0
100
AcDbLine
 10
91.42329450315178
 20
149.5121165776249
 30
0.0
 11
93.16351326713948
 21
151.2523353416126
 31
0.0
  0
LINE
  5
6FF
330
1F
100
AcDbEntity
  8
0
100
AcDbLine
 10
94.00850944831811
 20
152.0973315227913
 30
0.0
 11
95.70864894943178
 21
153.7974710239049
 31
0.0
  0
LINE
  5
700
330
1F
100
AcDbEntity
  8
0
100
AcDbLine
 10
91.3815367119013
 20
149.5078354457773
 30
0.0
 11
93.13397146322858
 21
151.2602701971046
 31
0.0
  0
LINE
  5
701
330
1F
100
AcDbEntity
  8
0
100
AcDbLine
 10
94.00850944831811
 20
152.1348081821941
 30
0.0
 11
95.7086489494318
 21
153.8349476833078
 31
0.0
  0
LINE
  5
702
330
1F
100
AcDbEntity
  8
0
100
AcDbLine
 10
91.34037584398145
 20
149.5041512372603
 30
0.0
 11
93.10442965931766
 21
151.2682050525966
 31
0.0
  0
LINE
  5
703
330
1F
100
AcDbEntity
  8
0
100
AcDbLine
 10
94.00850944831811
 20
152.172284841597
 30
0.0
 11
95.70864894943178
 21
153.8724243427107
 31
0.0
  0
LINE
  5
704
330
1F
100
AcDbEntity
  8
0
100
AcDbLine
 10
91.29959015846056
 20
149.5008422111424
 30
0.0
 11
93.07488785540676
 21
151.2761399080885
 31
0.0
  0
LINE
  5
705
330
1F
100
AcDbEntity
  8
0
100
AcDbLine
 10
94.00850944831811
 20
152.2097615009999
 30
0.0
 11
95.70864894943178
 21
153.9099010021136
 31
0.0
  0
LINE
  5
706
330
1F
100
AcDbEntity
  8
0
100
AcDbLine
 10
91.25910080505696
 20
149.4978295171416
 30
0.0
 11
93.04534605149586
 21
151.2840747635805
 31
0.0
  0
LINE
  5
707
330
1F
100
AcDbEntity
  8
0
100
AcDbLine
 10
94.00850944831811
 20
152.2472381604028
 30
0.0
 11
95.70864894943178
 21
153.9473776615164
 31
0.0
  0
LINE
  5
708
330
1F
100
AcDbEntity
  8
0
100
AcDbLine
 10
91.21896136221092
 20
149.4951667336985
 30
0.0
 11
93.01580424758494
 21
151.2920096190725
 31
0.0
  0
LINE
  5
709
330
1F
100
AcDbEntity
  8
0
100
AcDbLine
 10
94.00850944831811
 20
152.2847148198057
 30
0.0
 11
95.70864894943178
 21
153.9848543209193
 31
0.0
  0
LINE
  5
70A
330
1F
100
AcDbEntity
  8
0
100
AcDbLine
 10
91.17931078109744
 20
149.4929928119879
 30
0.0
 11
92.98626244367404
 21
151.2999444745645
 31
0.0
  0
LINE
  5
70B
330
1F
100
AcDbEntity
  8
0
100
AcDbLine
 10
94.00850944831811
 20
152.3221914792086
 30
0.0
 11
95.70864894943178
 21
154.0223309803222
 31
0.0
  0
LINE
  5
70C
330
1F
100
AcDbEntity
  8
0
100
AcDbLine
 10
91.14022774938321
 20
149.4913864396765
 30
0.0
 11
92.95672063976313
 21
151.3078793300565
 31
0.0
  0
LINE
  5
70D
330
1F
100
AcDbEntity
  8
0
100
AcDbLine
 10
94.00850944831811
 20
152.3596681386114
 30
0.0
 11
95.70864894943178
 21
154.0598076397251
 31
0.0
  0
LINE
  5
70E
330
1F
100
AcDbEntity
  8
0
100
AcDbLine
 10
91.10165521826539
 20
149.4902905679616
 30
0.0
 11
92.92717883585225
 21
151.3158141855484
 31
0.0
  0
LINE
  5
70F
330
1F
100
AcDbEntity
  8
0
100
AcDbLine
 10
94.00850944831811
 20
152.3971447980143
 30
0.0
 11
95.70864894943178
 21
154.097284299128
 31
0.0
  0
LINE
  5
710
330
1F
100
AcDbEntity
  8
0
100
AcDbLine
 10
91.06347625567274
 20
149.4895882647718
 30
0.0
 11
92.89763703194131
 21
151.3237490410404
 31
0.0
  0
LINE
  5
711
330
1F
100
AcDbEntity
  8
0
100
AcDbLine
 10
94.00850944831811
 20
152.4346214574172
 30
0.0
 11
95.70864894943178
 21
154.1347609585309
 31
0.0
  0
LINE
  5
712
330
1F
100
AcDbEntity
  8
0
100
AcDbLine
 10
91.0255578379451
 20
149.4891465064471
 30
0.0
 11
92.86809522803041
 21
151.3316838965324
 31
0.0
  0
LINE
  5
713
330
1F
100
AcDbEntity
  8
0
100
AcDbLine
 10
94.00850944831811
 20
152.4720981168201
 30
0.0
 11
95.70864894943179
 21
154.1722376179338
 31
0.0
  0
LINE
  5
714
330
1F
100
AcDbEntity
  8
0
100
AcDbLine
 10
90.98777458304056
 20
149.4888399109454
 30
0.0
 11
92.83855342411951
 21
151.3396187520244
 31
0.0
  0
LINE
  5
715
330
1F
100
AcDbEntity
  8
0
100
AcDbLine
 10
94.00850944831811
 20
152.509574776223
 30
0.0
 11
95.70864894943179
 21
154.2097142773366
 31
0.0
  0
LINE
  5
716
330
1F
100
AcDbEntity
  8
0
100
AcDbLine
 10
90.95074926518053
 20
149.4892912524883
 30
0.0
 11
92.8090116202086
 21
151.3475536075163
 31
0.0
  0
LINE
  5
717
330
1F
100
AcDbEntity
  8
0
100
AcDbLine
 10
94.0085094483181
 20
152.5470514356258
 30
0.0
 11
95.7086489494318
 21
154.2471909367395
 31
0.0
  0
LINE
  5
718
330
1F
100
AcDbEntity
  8
0
100
AcDbLine
 10
90.9138088264759
 20
149.4898274731866
 30
0.0
 11
92.77946981629769
 21
151.3554884630083
 31
0.0
  0
LINE
  5
719
330
1F
100
AcDbEntity
  8
0
100
AcDbLine
 10
94.0085094483181
 20
152.5845280950287
 30
0.0
 11
95.70864894943179
 21
154.2846675961424
 31
0.0
  0
LINE
  5
71A
330
1F
100
AcDbEntity
  8
0
100
AcDbLine
 10
90.87700128342226
 20
149.4904965895358
 30
0.0
 11
92.74992801238679
 21
151.3634233185003
 31
0.0
  0
LINE
  5
71B
330
1F
100
AcDbEntity
  8
0
100
AcDbLine
 10
94.00850944831811
 20
152.6220047544316
 30
0.0
 11
95.70864894943179
 21
154.3221442555453
 31
0.0
  0
LINE
  5
71C
330
1F
100
AcDbEntity
  8
0
100
AcDbLine
 10
90.84038776377405
 20
149.4913597292905
 30
0.0
 11
92.72038620847587
 21
151.3713581739923
 31
0.0
  0
LINE
  5
71D
330
1F
100
AcDbEntity
  8
0
100
AcDbLine
 10
94.0085094483181
 20
152.6594814138345
 30
0.0
 11
95.70864894943179
 21
154.3596209149482
 31
0.0
  0
LINE
  5
71E
330
1F
100
AcDbEntity
  8
0
100
AcDbLine
 10
90.80402677784959
 20
149.4924754027689
 30
0.0
 11
92.69084440456497
 21
151.3792930294842
 31
0.0
  0
LINE
  5
71F
330
1F
100
AcDbEntity
  8
0
100
AcDbLine
 10
94.00850944831811
 20
152.6969580732374
 30
0.0
 11
95.70864894943179
 21
154.3970975743511
 31
0.0
  0
LINE
  5
720
330
1F
100
AcDbEntity
  8
0
100
AcDbLine
 10
90.76796130226492
 20
149.4938865865871
 30
0.0
 11
92.66130260065407
 21
151.3872278849762
 31
0.0
  0
LINE
  5
721
330
1F
100
AcDbEntity
  8
0
100
AcDbLine
 10
94.00850944831811
 20
152.7344347326403
 30
0.0
 11
95.70864894943179
 21
154.4345742337539
 31
0.0
  0
LINE
  5
722
330
1F
100
AcDbEntity
  8
0
100
AcDbLine
 10
90.73221404956409
 20
149.4956159932891
 30
0.0
 11
92.63176079674318
 21
151.3951627404682
 31
0.0
  0
LINE
  5
723
330
1F
100
AcDbEntity
  8
0
100
AcDbLine
 10
94.00850944831811
 20
152.7719113920432
 30
0.0
 11
95.69991342183395
 21
154.463315365559
 31
0.0
  0
LINE
  5
724
330
1F
100
AcDbEntity
  8
0
100
AcDbLine
 10
90.69677150824238
 20
149.4976501113703
 30
0.0
 11
92.60221899283225
 21
151.4030975959602
 31
0.0
  0
LINE
  5
725
330
1F
100
AcDbEntity
  8
0
100
AcDbLine
 10
94.0085094483181
 20
152.809388051446
 30
0.0
 11
95.66243676243107
 21
154.463315365559
 31
0.0
  0
LINE
  5
726
330
1F
100
AcDbEntity
  8
0
100
AcDbLine
 10
90.66159121229506
 20
149.4999464748259
 30
0.0
 11
92.57267718892135
 21
151.4110324514522
 31
0.0
  0
LINE
  5
727
330
1F
100
AcDbEntity
  8
0
100
AcDbLine
 10
94.0085094483181
 20
152.8468647108489
 30
0.0
 11
95.62496010302819
 21
154.463315365559
 31
0.0
  0
LINE
  5
728
330
1F
100
AcDbEntity
  8
0
100
AcDbLine
 10
90.6266558081165
 20
149.5024877300502
 30
0.0
 11
92.54313538501043
 21
151.4189673069442
 31
0.0
  0
LINE
  5
729
330
1F
100
AcDbEntity
  8
0
100
AcDbLine
 10
94.00850944831812
 20
152.8843413702518
 30
0.0
 11
95.58748344362529
 21
154.463315365559
 31
0.0
  0
LINE
  5
72A
330
1F
100
AcDbEntity
  8
0
100
AcDbLine
 10
90.59197967746721
 20
149.5052882588038
 30
0.0
 11
92.51359358109953
 21
151.4269021624361
 31
0.0
  0
LINE
  5
72B
330
1F
100
AcDbEntity
  8
0
100
AcDbLine
 10
94.00850944831812
 20
152.9218180296547
 30
0.0
 11
95.55000678422239
 21
154.463315365559
 31
0.0
  0
LINE
  5
72C
330
1F
100
AcDbEntity
  8
0
100
AcDbLine
 10
90.55751093788795
 20
149.5082961786274
 30
0.0
 11
92.48405177718863
 21
151.4348370179281
 31
0.0
  0
LINE
  5
72D
330
1F
100
AcDbEntity
  8
0
100
AcDbLine
 10
94.0085094483181
 20
152.9592946890576
 30
0.0
 11
95.5125301248195
 21
154.463315365559
 31
0.0
  0
LINE
  5
72E
330
1F
100
AcDbEntity
  8
0
100
AcDbLine
 10
90.52327982403214
 20
149.5115417241745
 30
0.0
 11
92.45450997327772
 21
151.4427718734201
 31
0.0
  0
LINE
  5
72F
330
1F
100
AcDbEntity
  8
0
100
AcDbLine
 10
94.0085094483181
 20
152.9967713484604
 30
0.0
 11
95.47505346541664
 21
154.463315365559
 31
0.0
  0
LINE
  5
730
330
1F
100
AcDbEntity
  8
0
100
AcDbLine
 10
90.48940494222158
 20
149.5151435017668
 30
0.0
 11
92.4249681693668
 21
151.4507067289121
 31
0.0
  0
LINE
  5
731
330
1F
100
AcDbEntity
  8
0
100
AcDbLine
 10
94.0085094483181
 20
153.0342480078633
 30
0.0
 11
95.43757680601375
 21
154.463315365559
 31
0.0
  0
LINE
  5
732
330
1F
100
AcDbEntity
  8
0
100
AcDbLine
 10
90.4558341359187
 20
149.5190493548668
 30
0.0
 11
92.3954263654559
 21
151.458641584404
 31
0.0
  0
LINE
  5
733
330
1F
100
AcDbEntity
  8
0
100
AcDbLine
 10
94.0085094483181
 20
153.0717246672662
 30
0.0
 11
95.40010014661087
 21
154.463315365559
 31
0.0
  0
LINE
  5
734
330
1F
100
AcDbEntity
  8
0
100
AcDbLine
 10
90.42255421677807
 20
149.5232460951291
 30
0.0
 11
92.365884561545
 21
151.466576439896
 31
0.0
  0
LINE
  5
735
330
1F
100
AcDbEntity
  8
0
100
AcDbLine
 10
94.0085094483181
 20
153.1092013266691
 30
0.0
 11
95.36262348720798
 21
154.463315365559
 31
0.0
  0
LINE
  5
736
330
1F
100
AcDbEntity
  8
0
100
AcDbLine
 10
90.38958685533987
 20
149.5277553930938
 30
0.0
 11
92.33634275763409
 21
151.474511295388
 31
0.0
  0
LINE
  5
737
330
1F
100
AcDbEntity
  8
0
100
AcDbLine
 10
94.0085094483181
 20
153.146677986072
 30
0.0
 11
95.32514682780509
 21
154.463315365559
 31
0.0
  0
LINE
  5
738
330
1F
100
AcDbEntity
  8
0
100
AcDbLine
 10
90.35694740266777
 20
149.5325925998245
 30
0.0
 11
92.30680095372318
 21
151.48244615088
 31
0.0
  0
LINE
  5
739
330
1F
100
AcDbEntity
  8
0
100
AcDbLine
 10
94.00850944831812
 20
153.1841546454749
 30
0.0
 11
95.28767016840222
 21
154.463315365559
 31
0.0
  0
LINE
  5
73A
330
1F
100
AcDbEntity
  8
0
100
AcDbLine
 10
90.32465754472777
 20
149.5377794012874
 30
0.0
 11
92.27725914981228
 21
151.4903810063719
 31
0.0
  0
LINE
  5
73B
330
1F
100
AcDbEntity
  8
0
100
AcDbLine
 10
94.0085094483181
 20
153.2216313048778
 30
0.0
 11
95.25019350899933
 21
154.463315365559
 31
0.0
  0
LINE
  5
73C
330
1F
100
AcDbEntity
  8
0
100
AcDbLine
 10
90.29263011526714
 20
149.5432286312297
 30
0.0
 11
92.24771734590136
 21
151.4983158618639
 31
0.0
  0
LINE
  5
73D
330
1F
100
AcDbEntity
  8
0
100
AcDbLine
 10
94.0085094483181
 20
153.2591079642806
 30
0.0
 11
95.21271684959645
 21
154.463315365559
 31
0.0
  0
LINE
  5
73E
330
1F
100
AcDbEntity
  8
0
100
AcDbLine
 10
90.26085187158688
 20
149.5489270469523
 30
0.0
 11
92.21817554199046
 21
151.5062507173559
 31
0.0
  0
LINE
  5
73F
330
1F
100
AcDbEntity
  8
0
100
AcDbLine
 10
94.00850944831811
 20
153.2965846236835
 30
0.0
 11
95.17524019019356
 21
154.463315365559
 31
0.0
  0
LINE
  5
740
330
1F
100
AcDbEntity
  8
0
100
AcDbLine
 10
90.22933089616582
 20
149.5548827309341
 30
0.0
 11
92.18863373807956
 21
151.5141855728479
 31
0.0
  0
LINE
  5
741
330
1F
100
AcDbEntity
  8
0
100
AcDbLine
 10
94.00850944831812
 20
153.3340612830864
 30
0.0
 11
95.13776353079068
 21
154.463315365559
 31
0.0
  0
LINE
  5
742
330
1F
100
AcDbEntity
  8
0
100
AcDbLine
 10
90.19811383890595
 20
149.5611423330772
 30
0.0
 11
92.15909193416864
 21
151.5221204283399
 31
0.0
  0
LINE
  5
743
330
1F
100
AcDbEntity
  8
0
100
AcDbLine
 10
94.00850944831811
 20
153.3715379424893
 30
0.0
 11
95.1002868713878
 21
154.463315365559
 31
0.0
  0
LINE
  5
744
330
1F
100
AcDbEntity
  8
0
100
AcDbLine
 10
90.16719058096685
 20
149.5676957345409
 30
0.0
 11
92.12955013025774
 21
151.5300552838318
 31
0.0
  0
LINE
  5
745
330
1F
100
AcDbEntity
  8
0
100
AcDbLine
 10
94.00850944831811
 20
153.4090146018922
 30
0.0
 11
95.06281021198491
 21
154.463315365559
 31
0.0
  0
LINE
  5
746
330
1F
100
AcDbEntity
  8
0
100
AcDbLine
 10
90.13652738822393
 20
149.5745092012009
 30
0.0
 11
92.10000832634684
 21
151.5379901393238
 31
0.0
  0
LINE
  5
747
330
1F
100
AcDbEntity
  8
0
100
AcDbLine
 10
94.00850944831811
 20
153.4464912612951
 30
0.0
 11
95.02533355258203
 21
154.463315365559
 31
0.0
  0
LINE
  5
748
330
1F
100
AcDbEntity
  8
0
100
AcDbLine
 10
90.10612225322873
 20
149.5815807256086
 30
0.0
 11
92.07046652243592
 21
151.5459249948158
 31
0.0
  0
LINE
  5
749
330
1F
100
AcDbEntity
  8
0
100
AcDbLine
 10
94.00850944831811
 20
153.4839679206979
 30
0.0
 11
94.98785689317916
 21
154.463315365559
 31
0.0
  0
LINE
  5
74A
330
1F
100
AcDbEntity
  8
0
100
AcDbLine
 10
90.07599287251894
 20
149.5889280043017
 30
0.0
 11
91.36552106917462
 21
150.8784562009573
 31
0.0
  0
LINE
  5
74B
330
1F
100
AcDbEntity
  8
0
100
AcDbLine
 10
91.51027419860755
 20
151.0232093303903
 30
0.0
 11
92.04092471852502
 21
151.5538598503078
 31
0.0
  0
LINE
  5
74C
330
1F
100
AcDbEntity
  8
0
100
AcDbLine
 10
94.00850944831811
 20
153.5214445801008
 30
0.0
 11
94.95038023377627
 21
154.463315365559
 31
0.0
  0
LINE
  5
74D
330
1F
100
AcDbEntity
  8
0
100
AcDbLine
 10
90.04620217024986
 20
149.5966139614355
 30
0.0
 11
91.27702291784738
 21
150.827434709033
 31
0.0
  0
LINE
  5
74E
330
1F
100
AcDbEntity
  8
0
100
AcDbLine
 10
91.5789523942956
 20
151.1293641854812
 30
0.0
 11
92.01138291461412
 21
151.5617947057997
 31
0.0
  0
LINE
  5
74F
330
1F
100
AcDbEntity
  8
0
100
AcDbLine
 10
94.00850944831811
 20
153.5589212395037
 30
0.0
 11
94.91290357437339
 21
154.463315365559
 31
0.0
  0
LINE
  5
750
330
1F
100
AcDbEntity
  8
0
100
AcDbLine
 10
90.01673011257934
 20
149.6046185631679
 30
0.0
 11
91.2125268318593
 21
150.8004152824478
 31
0.0
  0
LINE
  5
751
330
1F
100
AcDbEntity
  8
0
100
AcDbLine
 10
91.61850069808811
 20
151.2063891486766
 30
0.0
 11
91.98184111070321
 21
151.5697295612917
 31
0.0
  0
LINE
  5
752
330
1F
100
AcDbEntity
  8
0
100
AcDbLine
 10
94.00850944831811
 20
153.5963978989066
 30
0.0
 11
94.8754269149705
 21
154.463315365559
 31
0.0
  0
LINE
  5
753
330
1F
100
AcDbEntity
  8
0
100
AcDbLine
 10
89.9875535773383
 20
149.6129186873297
 30
0.0
 11
91.1579521703378
 21
150.7833172803292
 31
0.0
  0
LINE
  5
754
330
1F
100
AcDbEntity
  8
0
100
AcDbLine
 10
91.64825406694595
 20
151.2736191769373
 30
0.0
 11
91.9522993067923
 21
151.5776644167837
 31
0.0
  0
LINE
  5
755
330
1F
100
AcDbEntity
  8
0
100
AcDbLine
 10
94.00850944831808
 20
153.6338745583095
 30
0.0
 11
94.83795025556762
 21
154.463315365559
 31
0.0
  0
LINE
  5
756
330
1F
100
AcDbEntity
  8
0
100
AcDbLine
 10
89.95867237178639
 20
149.6215141411807
 30
0.0
 11
91.10832001668763
 21
150.7711617860819
 31
0.0
  0
LINE
  5
757
330
1F
100
AcDbEntity
  8
0
100
AcDbLine
 10
91.6723215183676
 20
151.3351632877619
 30
0.0
 11
91.9227575028814
 21
151.5855992722757
 31
0.0
  0
LINE
  5
758
330
1F
100
AcDbEntity
  8
0
100
AcDbLine
 10
94.00850944831811
 20
153.6713512177124
 30
0.0
 11
94.80047359616474
 21
154.463315365559
 31
0.0
  0
LINE
  5
759
330
1F
100
AcDbEntity
  8
0
100
AcDbLine
 10
89.93010116665276
 20
149.6304195954499
 30
0.0
 11
91.06186048037158
 21
150.7621789091687
 31
0.0
  0
LINE
  5
75A
330
1F
100
AcDbEntity
  8
0
100
AcDbLine
 10
91.69231525470532
 20
151.3926336835025
 30
0.0
 11
91.8932156989705
 21
151.5935341277676
 31
0.0
  0
LINE
  5
75B
330
1F
100
AcDbEntity
  8
0
100
AcDbLine
 10
94.00850944831808
 20
153.7088278771153
 30
0.0
 11
94.76299693676185
 21
154.463315365559
 31
0.0
  0
LINE
  5
75C
330
1F
100
AcDbEntity
  8
0
100
AcDbLine
 10
89.90189281181124
 20
149.6396879000113
 30
0.0
 11
91.01805071960511
 21
150.7558458078051
 31
0.0
  0
LINE
  5
75D
330
1F
100
AcDbEntity
  8
0
100
AcDbLine
 10
91.7096564810093
 20
151.4474515692093
 30
0.0
 11
91.86367389505958
 21
151.6014689832596
 31
0.0
  0
LINE
  5
75E
330
1F
100
AcDbEntity
  8
0
100
AcDbLine
 10
94.00850944831811
 20
153.7463045365182
 30
0.0
 11
94.72552027735897
 21
154.463315365559
 31
0.0
  0
LINE
  5
75F
330
1F
100
AcDbEntity
  8
0
100
AcDbLine
 10
89.87401642657767
 20
149.6492881741806
 30
0.0
 11
90.97656246526452
 21
150.7518342128674
 31
0.0
  0
LINE
  5
760
330
1F
100
AcDbEntity
  8
0
100
AcDbLine
 10
91.72509316868727
 20
151.5003649162902
 30
0.0
 11
91.83413209114867
 21
151.6094038387516
 31
0.0
  0
LINE
  5
761
330
1F
100
AcDbEntity
  8
0
100
AcDbLine
 10
93.15142450450087
 20
152.9266962521038
 30
0.0
 11
93.18229323923815
 21
152.9575649868411
 31
0.0
  0
LINE
  5
762
330
1F
100
AcDbEntity
  8
0
100
AcDbLine
 10
94.00850944831811
 20
153.783781195921
 30
0.0
 11
94.68804361795608
 21
154.463315365559
 31
0.0
  0
LINE
  5
763
330
1F
100
AcDbEntity
  8
0
100
AcDbLine
 10
89.84643272113138
 20
149.6591811281372
 30
0.0
 11
90.936894860351
 21
150.7496432673568
 31
0.0
  0
LINE
  5
764
330
1F
100
AcDbEntity
  8
0
100
AcDbLine
 10
91.73881554075415
 20
151.5515639477599
 30
0.0
 11
91.80459028723774
 21
151.6173386942436
 31
0.0
  0
LINE
  5
765
330
1F
100
AcDbEntity
  8
0
100
AcDbLine
 10
93.10461730596997
 20
152.9173657129758
 30
0.0
 11
93.17297781718702
 21
152.9857262241928
 31
0.0
  0
LINE
  5
766
330
1F
100
AcDbEntity
  8
0
100
AcDbLine
 10
94.00850944831811
 20
153.8212578553239
 30
0.0
 11
94.6505669585532
 21
154.463315365559
 31
0.0
  0
LINE
  5
767
330
1F
100
AcDbEntity
  8
0
100
AcDbLine
 10
89.8191343219587
 20
149.6693593883674
 30
0.0
 11
90.89837630096586
 21
150.7486013673746
 31
0.0
  0
LINE
  5
768
330
1F
100
AcDbEntity
  8
0
100
AcDbLine
 10
91.75146118730123
 20
151.6016862537099
 30
0.0
 11
91.77504848332686
 21
151.6252735497356
 31
0.0
  0
LINE
  5
769
330
1F
100
AcDbEntity
  8
0
100
AcDbLine
 10
93.0578101074391
 20
152.9080351738478
 30
0.0
 11
93.16358679642767
 21
153.0138118628363
 31
0.0
  0
LINE
  5
76A
330
1F
100
AcDbEntity
  8
0
100
AcDbLine
 10
94.00850944831811
 20
153.8587345147268
 30
0.0
 11
94.61309029915031
 21
154.463315365559
 31
0.0
  0
LINE
  5
76B
330
1F
100
AcDbEntity
  8
0
100
AcDbLine
 10
89.79213618207868
 20
149.6798379078903
 30
0.0
 11
90.86085265055331
 21
150.7485543763649
 31
0.0
  0
LINE
  5
76C
330
1F
100
AcDbEntity
  8
0
100
AcDbLine
 10
93.0110029089082
 20
152.8987046347198
 30
0.0
 11
93.15408295631907
 21
153.0417846821306
 31
0.0
  0
LINE
  5
76D
330
1F
100
AcDbEntity
  8
0
100
AcDbLine
 10
94.00850944831811
 20
153.8962111741297
 30
0.0
 11
94.57561363974743
 21
154.463315365559
 31
0.0
  0
LINE
  5
76E
330
1F
100
AcDbEntity
  8
0
100
AcDbLine
 10
89.76547627714596
 20
149.6906546623604
 30
0.0
 11
90.82466947607294
 21
150.7498478612874
 31
0.0
  0
LINE
  5
76F
330
1F
100
AcDbEntity
  8
0
100
AcDbLine
 10
92.96419571037731
 20
152.8893740955918
 30
0.0
 11
93.14443036053396
 21
153.0696087457484
 31
0.0
  0
LINE
  5
770
330
1F
100
AcDbEntity
  8
0
100
AcDbLine
 10
94.00850944831811
 20
153.9336878335326
 30
0.0
 11
94.53813698034453
 21
154.463315365559
 31
0.0
  0
LINE
  5
771
330
1F
100
AcDbEntity
  8
0
100
AcDbLine
 10
89.73916716093453
 20
149.7018222055519
 30
0.0
 11
90.78946209587069
 21
150.752117140488
 31
0.0
  0
LINE
  5
772
330
1F
100
AcDbEntity
  8
0
100
AcDbLine
 10
92.91738851184644
 20
152.8800435564638
 30
0.0
 11
93.13458053516393
 21
153.0972355797813
 31
0.0
  0
LINE
  5
773
330
1F
100
AcDbEntity
  8
0
100
AcDbLine
 10
94.00850944831811
 20
153.9711644929355
 30
0.0
 11
94.50066032094165
 21
154.463315365559
 31
0.0
  0
LINE
  5
774
330
1F
100
AcDbEntity
  8
0
100
AcDbLine
 10
89.71316732005408
 20
149.7132990240743
 30
0.0
 11
90.75572083431314
 21
150.7558525383334
 31
0.0
  0
LINE
  5
775
330
1F
100
AcDbEntity
  8
0
100
AcDbLine
 10
92.87058131331557
 20
152.8707130173358
 30
0.0
 11
93.12446355727515
 21
153.1245952612954
 31
0.0
  0
LINE
  5
776
330
1F
100
AcDbEntity
  8
0
100
AcDbLine
 10
94.0085094483181
 20
154.0086411523383
 30
0.0
 11
94.46318366153875
 21
154.463315365559
 31
0.0
  0
LINE
  5
777
330
1F
100
AcDbEntity
  8
0
100
AcDbLine
 10
89.68747776876276
 20
149.7250861321859
 30
0.0
 11
90.72341593469342
 21
150.7610242981165
 31
0.0
  0
LINE
  5
778
330
1F
100
AcDbEntity
  8
0
100
AcDbLine
 10
92.8237741147847
 20
152.8613824782078
 30
0.0
 11
93.11409326088143
 21
153.1517016243045
 31
0.0
  0
LINE
  5
779
330
1F
100
AcDbEntity
  8
0
100
AcDbLine
 10
94.0085094483181
 20
154.0461178117412
 30
0.0
 11
94.4257070021359
 21
154.463315365559
 31
0.0
  0
LINE
  5
77A
330
1F
100
AcDbEntity
  8
0
100
AcDbLine
 10
89.66210965483263
 20
149.7371946776586
 30
0.0
 11
90.69248516349766
 21
150.7675701863237
 31
0.0
  0
LINE
  5
77B
330
1F
100
AcDbEntity
  8
0
100
AcDbLine
 10
92.7769669162538
 20
152.8520519390798
 30
0.0
 11
93.10346474867187
 21
153.1785497714979
 31
0.0
  0
LINE
  5
77C
330
1F
100
AcDbEntity
  8
0
100
AcDbLine
 10
94.00850944831811
 20
154.0835944711441
 30
0.0
 11
94.38823034273301
 21
154.463315365559
 31
0.0
  0
LINE
  5
77D
330
1F
100
AcDbEntity
  8
0
100
AcDbLine
 10
89.6370867597794
 20
149.7496484420083
 30
0.0
 11
90.66273417493149
 21
150.7752958571604
 31
0.0
  0
LINE
  5
77E
330
1F
100
AcDbEntity
  8
0
100
AcDbLine
 10
92.73015971772291
 20
152.8427213999518
 30
0.0
 11
93.09259315476099
 21
153.2051548369899
 31
0.0
  0
LINE
  5
77F
330
1F
100
AcDbEntity
  8
0
100
AcDbLine
 10
94.00850944831811
 20
154.121071130547
 30
0.0
 11
94.35075368333013
 21
154.463315365559
 31
0.0
  0
LINE
  5
780
330
1F
100
AcDbEntity
  8
0
100
AcDbLine
 10
89.61249035298995
 20
149.7625286946217
 30
0.0
 11
90.6339161509734
 21
150.7839544926052
 31
0.0
  0
LINE
  5
781
330
1F
100
AcDbEntity
  8
0
100
AcDbLine
 10
92.68335251919204
 20
152.8333908608238
 30
0.0
 11
93.08149394930986
 21
153.2315322909416
 31
0.0
  0
LINE
  5
782
330
1F
100
AcDbEntity
  8
0
100
AcDbLine
 10
94.00850944831811
 20
154.1585477899499
 30
0.0
 11
94.31327702392724
 21
154.463315365559
 31
0.0
  0
LINE
  5
783
330
1F
100
AcDbEntity
  8
0
100
AcDbLine
 10
89.58824481123487
 20
149.7757598122695
 30
0.0
 11
90.60600526872162
 21
150.7935202697563
 31
0.0
  0
LINE
  5
784
330
1F
100
AcDbEntity
  8
0
100
AcDbLine
 10
92.63654532066114
 20
152.8240603216958
 30
0.0
 11
93.07018172974713
 21
153.2576967307818
 31
0.0
  0
LINE
  5
785
330
1F
100
AcDbEntity
  8
0
100
AcDbLine
 10
94.00850944831811
 20
154.1960244493528
 30
0.0
 11
94.27580036452436
 21
154.463315365559
 31
0.0
  0
LINE
  5
786
330
1F
100
AcDbEntity
  8
0
100
AcDbLine
 10
89.56435232548691
 20
149.7893439859244
 30
0.0
 11
90.57895292538605
 21
150.8039445858236
 31
0.0
  0
LINE
  5
787
330
1F
100
AcDbEntity
  8
0
100
AcDbLine
 10
92.58973812213026
 20
152.8147297825678
 30
0.0
 11
93.05866024673364
 21
153.2836519071712
 31
0.0
  0
LINE
  5
788
330
1F
100
AcDbEntity
  8
0
100
AcDbLine
 10
94.00850944831811
 20
154.2335011087556
 30
0.0
 11
94.23832370512147
 21
154.463315365559
 31
0.0
  0
LINE
  5
789
330
1F
100
AcDbEntity
  8
0
100
AcDbLine
 10
89.54079560770958
 20
149.80326392755
 30
0.0
 11
90.55302436601171
 21
150.8154926858521
 31
0.0
  0
LINE
  5
78A
330
1F
100
AcDbEntity
  8
0
100
AcDbLine
 10
92.54293092359939
 20
152.8053992434398
 30
0.0
 11
93.0469274523801
 21
153.3093957722205
 31
0.0
  0
LINE
  5
78B
330
1F
100
AcDbEntity
  8
0
100
AcDbLine
 10
94.00850944831811
 20
154.2709777681585
 30
0.0
 11
94.20084704571859
 21
154.463315365559
 31
0.0
  0
LINE
  5
78C
330
1F
100
AcDbEntity
  8
0
100
AcDbLine
 10
89.51760345781304
 20
149.8175484370563
 30
0.0
 11
90.52807215510092
 21
150.8280171343442
 31
0.0
  0
LINE
  5
78D
330
1F
100
AcDbEntity
  8
0
100
AcDbLine
 10
92.4961237250685
 20
152.7960687043118
 30
0.0
 11
93.03498472437272
 21
153.334929703616
 31
0.0
  0
LINE
  5
78E
330
1F
100
AcDbEntity
  8
0
100
AcDbLine
 10
94.0085094483181
 20
154.3084544275614
 30
0.0
 11
94.1633703863157
 21
154.463315365559
 31
0.0
  0
LINE
  5
78F
330
1F
100
AcDbEntity
  8
0
100
AcDbLine
 10
89.49475717870627
 20
149.8321788173525
 30
0.0
 11
90.50405569449973
 21
150.8414773331459
 31
0.0
  0
LINE
  5
790
330
1F
100
AcDbEntity
  8
0
100
AcDbLine
 10
92.4493165265376
 20
152.7867381651838
 30
0.0
 11
93.02295645114013
 21
153.3603780897863
 31
0.0
  0
LINE
  5
791
330
1F
100
AcDbEntity
  8
0
100
AcDbLine
 10
94.0085094483181
 20
154.3459310869643
 30
0.0
 11
94.12589372691282
 21
154.463315365559
 31
0.0
  0
LINE
  5
792
330
1F
100
AcDbEntity
  8
0
100
AcDbLine
 10
89.47215793086632
 20
149.8470562289154
 30
0.0
 11
90.48077852681887
 21
150.8556768248679
 31
0.0
  0
LINE
  5
793
330
1F
100
AcDbEntity
  8
0
100
AcDbLine
 10
92.40250932800674
 20
152.7774076260558
 30
0.0
 11
93.0106244168854
 21
153.3855227149345
 31
0.0
  0
LINE
  5
794
330
1F
100
AcDbEntity
  8
0
100
AcDbLine
 10
94.00850944831811
 20
154.3834077463672
 30
0.0
 11
94.08841706750991
 21
154.463315365559
 31
0.0
  0
LINE
  5
795
330
1F
100
AcDbEntity
  8
0
100
AcDbLine
 10
89.4497896883506
 20
149.8621646458026
 30
0.0
 11
90.45820379173146
 21
150.8705787491834
 31
0.0
  0
LINE
  5
796
330
1F
100
AcDbEntity
  8
0
100
AcDbLine
 10
92.35570212947586
 20
152.7680770869278
 30
0.0
 11
92.99814967268644
 21
153.4105246301384
 31
0.0
  0
LINE
  5
797
330
1F
100
AcDbEntity
  8
0
100
AcDbLine
 10
94.0085094483181
 20
154.42088440577
 30
0.0
 11
94.05094040810705
 21
154.463315365559
 31
0.0
  0
LINE
  5
798
330
1F
100
AcDbEntity
  8
0
100
AcDbLine
 10
89.42764486189475
 20
149.8774964787496
 30
0.0
 11
90.43647305219227
 21
150.8863246690471
 31
0.0
  0
LINE
  5
799
330
1F
100
AcDbEntity
  8
0
100
AcDbLine
 10
92.30889493094497
 20
152.7587465477998
 30
0.0
 11
92.9854458008859
 21
153.4352974177407
 31
0.0
  0
LINE
  5
79A
330
1F
100
AcDbEntity
  8
0
100
AcDbLine
 10
94.00850944831812
 20
154.458361065173
 30
0.0
 11
94.01346374870415
 21
154.463315365559
 31
0.0
  0
LINE
  5
79B
330
1F
100
AcDbEntity
  8
0
100
AcDbLine
 10
89.40582415962464
 20
149.8931524358824
 30
0.0
 11
90.41553724114566
 21
150.9028655174034
 31
0.0
  0
LINE
  5
79C
330
1F
100
AcDbEntity
  8
0
100
AcDbLine
 10
92.26208773241407
 20
152.7494160086718
 30
0.0
 11
92.97246569862114
 21
153.4597939748789
 31
0.0
  0
LINE
  5
79D
330
1F
100
AcDbEntity
  8
0
100
AcDbLine
 10
89.38425279793177
 20
149.9090577335924
 30
0.0
 11
90.39545496789506
 21
150.9202599035557
 31
0.0
  0
LINE
  5
79E
330
1F
100
AcDbEntity
  8
0
100
AcDbLine
 10
92.2152805338832
 20
152.7400854695438
 30
0.0
 11
92.9593512546256
 21
153.4841561902862
 31
0.0
  0
LINE
  5
79F
330
1F
100
AcDbEntity
  8
0
100
AcDbLine
 10
89.36294158800597
 20
149.9252231830694
 30
0.0
 11
90.3760471664828
 21
150.9383287615463
 31
0.0
  0
LINE
  5
7A0
330
1F
100
AcDbEntity
  8
0
100
AcDbLine
 10
92.16847333535233
 20
152.7307549304158
 30
0.0
 11
92.94582700616373
 21
153.5081086012272
 31
0.0
  0
LINE
  5
7A1
330
1F
100
AcDbEntity
  8
0
100
AcDbLine
 10
89.341920606893
 20
149.9416788613594
 30
0.0
 11
90.35718492049823
 21
150.9569431749646
 31
0.0
  0
LINE
  5
7A2
330
1F
100
AcDbEntity
  8
0
100
AcDbLine
 10
92.12166613682143
 20
152.7214243912878
 30
0.0
 11
92.93216749987938
 21
153.5319257543458
 31
0.0
  0
LINE
  5
7A3
330
1F
100
AcDbEntity
  8
0
100
AcDbLine
 10
89.3213206225057
 20
149.9585555363749
 30
0.0
 11
90.3389777701621
 21
150.9762126840314
 31
0.0
  0
LINE
  5
7A4
330
1F
100
AcDbEntity
  8
0
100
AcDbLine
 10
92.07485893829055
 20
152.7120938521598
 30
0.0
 11
92.91821067579995
 21
153.5554455896692
 31
0.0
  0
LINE
  5
7A5
330
1F
100
AcDbEntity
  8
0
100
AcDbLine
 10
89.3009840325676
 20
149.9756956058397
 30
0.0
 11
90.32152577576794
 21
150.9962373490401
 31
0.0
  0
LINE
  5
7A6
330
1F
100
AcDbEntity
  8
0
100
AcDbLine
 10
92.02805173975969
 20
152.7027633130318
 30
0.0
 11
92.90402125231452
 21
153.5787328255867
 31
0.0
  0
LINE
  5
7A7
330
1F
100
AcDbEntity
  8
0
100
AcDbLine
 10
89.28090106304813
 20
149.9930892957232
 30
0.0
 11
90.3049170130986
 21
151.0171052457736
 31
0.0
  0
LINE
  5
7A8
330
1F
100
AcDbEntity
  8
0
100
AcDbLine
 10
91.98124454122879
 20
152.6934327739038
 30
0.0
 11
92.88967324907897
 21
153.601861481754
 31
0.0
  0
LINE
  5
7A9
330
1F
100
AcDbEntity
  8
0
100
AcDbLine
 10
89.26112249987277
 20
150.0107873919507
 30
0.0
 11
90.28918736787492
 21
151.0388522599528
 31
0.0
  0
LINE
  5
7AA
330
1F
100
AcDbEntity
  8
0
100
AcDbLine
 10
91.93443734269792
 20
152.6841022347758
 30
0.0
 11
92.87498950543674
 21
153.6246543975147
 31
0.0
  0
LINE
  5
7AB
330
1F
100
AcDbEntity
  8
0
100
AcDbLine
 10
89.24162859757487
 20
150.0287701490557
 30
0.0
 11
90.2744628785369
 21
151.0616044300177
 31
0.0
  0
LINE
  5
7AC
330
1F
100
AcDbEntity
  8
0
100
AcDbLine
 10
91.88763014416703
 20
152.6747716956478
 30
0.0
 11
92.86019714002589
 21
153.6473386915067
 31
0.0
  0
LINE
  5
7AD
330
1F
100
AcDbEntity
  8
0
100
AcDbLine
 10
89.22233689137727
 20
150.046955102261
 30
0.0
 11
90.26060888742049
 21
151.0852270983042
 31
0.0
  0
LINE
  5
7AE
330
1F
100
AcDbEntity
  8
0
100
AcDbLine
 10
91.84082294563616
 20
152.6654411565198
 30
0.0
 11
92.8451219279634
 21
153.6697401388471
 31
0.0
  0
LINE
  5
7AF
330
1F
100
AcDbEntity
  8
0
100
AcDbLine
 10
89.20322876902526
 20
150.0653236393118
 30
0.0
 11
90.24758210315716
 21
151.1096769734437
 31
0.0
  0
LINE
  5
7B0
330
1F
100
AcDbEntity
  8
0
100
AcDbLine
 10
91.79401574710526
 20
152.6561106173918
 30
0.0
 11
92.829834103026
 21
153.6919289733126
 31
0.0
  0
LINE
  5
7B1
330
1F
100
AcDbEntity
  8
0
100
AcDbLine
 10
89.18442717512085
 20
150.0839987048103
 30
0.0
 11
90.23538298479302
 21
151.1349545144825
 31
0.0
  0
LINE
  5
7B2
330
1F
100
AcDbEntity
  8
0
100
AcDbLine
 10
91.74720854857438
 20
152.6467800782638
 30
0.0
 11
92.81438277931059
 21
153.713954309
 31
0.0
  0
LINE
  5
7B3
330
1F
100
AcDbEntity
  8
0
100
AcDbLine
 10
89.16580728953977
 20
150.1028554786321
 30
0.0
 11
90.22398119551286
 21
151.1610293846052
 31
0.0
  0
LINE
  5
7B4
330
1F
100
AcDbEntity
  8
0
100
AcDbLine
 10
91.70040135004349
 20
152.6374495391358
 30
0.0
 11
92.79855167520462
 21
153.7355998642969
 31
0.0
  0
LINE
  5
7B5
330
1F
100
AcDbEntity
  8
0
100
AcDbLine
 10
89.14736236126122
 20
150.1218872097564
 30
0.0
 11
90.21337309873965
 21
151.1878979472349
 31
0.0
  0
LINE
  5
7B6
330
1F
100
AcDbEntity
  8
0
100
AcDbLine
 10
91.68982669308878
 20
152.664351541584
 30
0.0
 11
92.78256648672547
 21
153.7570913352207
 31
0.0
  0
LINE
  5
7B7
330
1F
100
AcDbEntity
  8
0
100
AcDbLine
 10
89.12916594058147
 20
150.1411674484796
 30
0.0
 11
90.20348723898677
 21
151.2154887468849
 31
0.0
  0
LINE
  5
7B8
330
1F
100
AcDbEntity
  8
0
100
AcDbLine
 10
91.68000613917759
 20
152.6920076470757
 30
0.0
 11
92.76625385197224
 21
153.7782553598703
 31
0.0
  0
LINE
  5
7B9
330
1F
100
AcDbEntity
  8
0
100
AcDbLine
 10
89.11119473990026
 20
150.1606729072012
 30
0.0
 11
90.19431307411192
 21
151.2437912414129
 31
0.0
  0
LINE
  5
7BA
330
1F
100
AcDbEntity
  8
0
100
AcDbLine
 10
91.67003921359515
 20
152.7195173808961
 30
0.0
 11
92.74965263536562
 21
153.7991308026666
 31
0.0
  0
LINE
  5
7BB
330
1F
100
AcDbEntity
  8
0
100
AcDbLine
 10
89.09338742072296
 20
150.1803422474268
 30
0.0
 11
90.1857416976545
 21
151.2726965243584
 31
0.0
  0
LINE
  5
7BC
330
1F
100
AcDbEntity
  8
0
100
AcDbLine
 10
91.65985631488536
 20
152.7468111415892
 30
0.0
 11
92.73287059053878
 21
153.8198254172426
 31
0.0
  0
LINE
  5
7BD
330
1F
100
AcDbEntity
  8
0
100
AcDbLine
 10
89.07581209138654
 20
150.2002435774933
 30
0.0
 11
90.1776864730051
 21
151.3021179591119
 31
0.0
  0
LINE
  5
7BE
330
1F
100
AcDbEntity
  8
0
100
AcDbLine
 10
91.64934505661311
 20
152.7737765427199
 30
0.0
 11
92.71563473508941
 21
153.8400662211962
 31
0.0
  0
LINE
  5
7BF
330
1F
100
AcDbEntity
  8
0
100
AcDbLine
 10
89.0585057418782
 20
150.2204138873878
 30
0.0
 11
90.1701445004479
 21
151.3320526459575
 31
0.0
  0
LINE
  5
7C0
330
1F
100
AcDbEntity
  8
0
100
AcDbLine
 10
91.63850989489333
 20
152.800418040403
 30
0.0
 11
92.69823247467343
 21
153.8601406201831
 31
0.0
  0
LINE
  5
7C1
330
1F
100
AcDbEntity
  8
0
100
AcDbLine
 10
89.04138295056276
 20
150.2407677554753
 30
0.0
 11
90.16308813214091
 21
151.3624729370534
 31
0.0
  0
LINE
  5
7C2
330
1F
100
AcDbEntity
  8
0
100
AcDbLine
 10
91.6272135836266
 20
152.8265983885391
 30
0.0
 11
92.68055771002828
 21
153.8799425149408
 31
0.0
  0
LINE
  5
7C3
330
1F
100
AcDbEntity
  8
0
100
AcDbLine
 10
89.02449540354445
 20
150.2613568678599
 30
0.0
 11
90.1564912051631
 21
151.3933526694785
 31
0.0
  0
LINE
  5
7C4
330
1F
100
AcDbEntity
  8
0
100
AcDbLine
 10
91.61548343476527
 20
152.8523448990807
 30
0.0
 11
92.66256383907974
 21
153.8994253033951
 31
0.0
  0
LINE
  5
7C5
330
1F
100
AcDbEntity
  8
0
100
AcDbLine
 10
89.00792480421914
 20
150.2822629279374
 30
0.0
 11
90.15030412012078
 21
151.4246422438391
 31
0.0
  0
LINE
  5
7C6
330
1F
100
AcDbEntity
  8
0
100
AcDbLine
 10
91.60307712264571
 20
152.877415246364
 30
0.0
 11
92.64441330744299
 21
153.9187514311613
 31
0.0
  0
LINE
  5
7C7
330
1F
100
AcDbEntity
  8
0
100
AcDbLine
 10
88.99151997298443
 20
150.3033347561056
 30
0.0
 11
90.1445450068672
 21
151.4563597899884
 31
0.0
  0
LINE
  5
7C8
330
1F
100
AcDbEntity
  8
0
100
AcDbLine
 10
91.58979220952483
 20
152.901606992646
 30
0.0
 11
92.62590813156147
 21
153.9377229146826
 31
0.0
  0
LINE
  5
7C9
330
1F
100
AcDbEntity
  8
0
100
AcDbLine
 10
88.97533675592825
 20
150.3246281984523
 30
0.0
 11
90.1392294939583
 21
151.4885209364824
 31
0.0
  0
LINE
  5
7CA
330
1F
100
AcDbEntity
  8
0
100
AcDbLine
 10
91.57552863551285
 20
152.9248200780369
 30
0.0
 11
92.60718510502832
 21
153.9564765475524
 31
0.0
  0
LINE
  5
7CB
330
1F
100
AcDbEntity
  8
0
100
AcDbLine
 10
88.95939472544293
 20
150.3461628273699
 30
0.0
 11
90.13435541969582
 21
151.5211235216228
 31
0.0
  0
LINE
  5
7CC
330
1F
100
AcDbEntity
  8
0
100
AcDbLine
 10
91.56050529156131
 20
152.9472733934882
 30
0.0
 11
92.58827240377208
 21
153.975040505699
 31
0.0
  0
LINE
  5
7CD
330
1F
100
AcDbEntity
  8
0
100
AcDbLine
 10
88.94357969660257
 20
150.3678244579324
 30
0.0
 11
90.12993012121227
 21
151.5541748825421
 31
0.0
  0
LINE
  5
7CE
330
1F
100
AcDbEntity
  8
0
100
AcDbLine
 10
91.54460875978933
 20
152.9688535211191
 30
0.0
 11
92.56896997658599
 21
153.9932147379158
 31
0.0
  0
LINE
  5
7CF
330
1F
100
AcDbEntity
  8
0
100
AcDbLine
 10
88.92793303843222
 20
150.3896544591649
 30
0.0
 11
90.12590751865316
 21
151.5876289393859
 31
0.0
  0
LINE
  5
7D0
330
1F
100
AcDbEntity
  8
0
100
AcDbLine
 10
91.52780471864453
 20
152.9895261393773
 30
0.0
 11
92.54949658615145
 21
154.0112180068841
 31
0.0
  0
LINE
  5
7D1
330
1F
100
AcDbEntity
  8
0
100
AcDbLine
 10
88.91245925381081
 20
150.4116573339464
 30
0.0
 11
90.12227319621728
 21
151.6214712763529
 31
0.0
  0
LINE
  5
7D2
330
1F
100
AcDbEntity
  8
0
100
AcDbLine
 10
91.51062848754628
 20
153.0098265676819
 30
0.0
 11
92.52974563243716
 21
154.0289437125728
 31
0.0
  0
LINE
  5
7D3
330
1F
100
AcDbEntity
  8
0
100
AcDbLine
 10
88.89708704734494
 20
150.4337617868834
 30
0.0
 11
90.11900754450802
 21
151.6556822840465
 31
0.0
  0
LINE
  5
7D4
330
1F
100
AcDbEntity
  8
0
100
AcDbLine
 10
91.49292493606174
 20
153.0295996756002
 30
0.0
 11
92.50967162947929
 21
154.0463463690178
 31
0.0
  0
LINE
  5
7D5
330
1F
100
AcDbEntity
  8
0
100
AcDbLine
 10
88.8819016165507
 20
150.4560530154921
 30
0.0
 11
90.11608149535462
 21
151.690232894296
 31
0.0
  0
LINE
  5
7D6
330
1F
100
AcDbEntity
  8
0
100
AcDbLine
 10
91.47438162265838
 20
153.0485330215998
 30
0.0
 11
92.48941270275036
 21
154.0635641016917
 31
0.0
  0
LINE
  5
7D7
330
1F
100
AcDbEntity
  8
0
100
AcDbLine
 10
88.86691129756221
 20
150.4785393559065
 30
0.0
 11
90.11350840144506
 21
151.7251364597893
 31
0.0
  0
LINE
  5
7D8
330
1F
100
AcDbEntity
  8
0
100
AcDbLine
 10
91.45518169583697
 20
153.0668097541812
 30
0.0
 11
92.4687907772711
 21
154.0804188356153
 31
0.0
  0
LINE
  5
7D9
330
1F
100
AcDbEntity
  8
0
100
AcDbLine
 10
88.85205431804815
 20
150.5011590357953
 30
0.0
 11
90.11127870833191
 21
151.760383426079
 31
0.0
  0
LINE
  5
7DA
330
1F
100
AcDbEntity
  8
0
100
AcDbLine
 10
91.4352853423242
 20
153.0843900600713
 30
0.0
 11
92.44789361793251
 21
154.0969983356796
 31
0.0
  0
LINE
  5
7DB
330
1F
100
AcDbEntity
  8
0
100
AcDbLine
 10
88.83748447510686
 20
150.5240658522569
 30
0.0
 11
90.10939880338321
 21
151.7959801805332
 31
0.0
  0
LINE
  5
7DC
330
1F
100
AcDbEntity
  8
0
100
AcDbLine
 10
91.41485323816649
 20
153.1014346153165
 30
0.0
 11
92.42679890247528
 21
154.1133802796253
 31
0.0
  0
LINE
  5
7DD
330
1F
100
AcDbEntity
  8
0
100
AcDbLine
 10
88.8231305054373
 20
150.5471885419902
 30
0.0
 11
90.10787532065251
 21
151.8319333572054
 31
0.0
  0
LINE
  5
7DE
330
1F
100
AcDbEntity
  8
0
100
AcDbLine
 10
91.39386933114739
 20
153.1179273677003
 30
0.0
 11
92.40525187242315
 21
154.129309908976
 31
0.0
  0
LINE
  5
7DF
330
1F
100
AcDbEntity
  8
0
100
AcDbLine
 10
88.80893354857366
 20
150.5704682445295
 30
0.0
 11
90.10669825722847
 21
151.8682329531842
 31
0.0
  0
LINE
  5
7E0
330
1F
100
AcDbEntity
  8
0
100
AcDbLine
 10
91.37212437088874
 20
153.1336590668445
 30
0.0
 11
92.38347343423175
 21
154.1450081301875
 31
0.0
  0
LINE
  5
7E1
330
1F
100
AcDbEntity
  8
0
100
AcDbLine
 10
88.79513163937364
 20
150.5941429947323
 30
0.0
 11
90.10584643586546
 21
151.9048577912241
 31
0.0
  0
LINE
  5
7E2
330
1F
100
AcDbEntity
  8
0
100
AcDbLine
 10
91.34955245635427
 20
153.148563811713
 30
0.0
 11
92.36144055592106
 21
154.1604519112797
 31
0.0
  0
LINE
  5
7E3
330
1F
100
AcDbEntity
  8
0
100
AcDbLine
 10
88.78150382912129
 20
150.6179918438828
 30
0.0
 11
90.10527314718213
 21
151.9417611619437
 31
0.0
  0
LINE
  5
7E4
330
1F
100
AcDbEntity
  8
0
100
AcDbLine
 10
91.3261275516731
 20
153.1626155664347
 30
0.0
 11
92.338960531535
 21
154.1754485462965
 31
0.0
  0
LINE
  5
7E5
330
1F
100
AcDbEntity
  8
0
100
AcDbLine
 10
88.76812052581883
 20
150.6420851999833
 30
0.0
 11
90.10486946083849
 21
151.9788341350029
 31
0.0
  0
LINE
  5
7E6
330
1F
100
AcDbEntity
  8
0
100
AcDbLine
 10
91.30189800867025
 20
153.1758626828347
 30
0.0
 11
92.31626314656856
 21
154.190227820733
 31
0.0
  0
LINE
  5
7E7
330
1F
100
AcDbEntity
  8
0
100
AcDbLine
 10
88.75510025892515
 20
150.6665415924925
 30
0.0
 11
90.10456362374563
 21
152.016004957313
 31
0.0
  0
LINE
  5
7E8
330
1F
100
AcDbEntity
  8
0
100
AcDbLine
 10
91.27687927237996
 20
153.1883206059473
 30
0.0
 11
92.29324335450778
 21
154.2046846880751
 31
0.0
  0
LINE
  5
7E9
330
1F
100
AcDbEntity
  8
0
100
AcDbLine
 10
88.74227519273327
 20
150.6911931857035
 30
0.0
 11
90.10483895694576
 21
152.053756949916
 31
0.0
  0
LINE
  5
7EA
330
1F
100
AcDbEntity
  8
0
100
AcDbLine
 10
91.25111317984395
 20
153.2000311728142
 30
0.0
 11
92.26982642651828
 21
154.2187444194885
 31
0.0
  0
LINE
  5
7EB
330
1F
100
AcDbEntity
  8
0
100
AcDbLine
 10
88.7297766045747
 20
150.7161712569478
 30
0.0
 11
90.10540829780922
 21
152.0918029501823
 31
0.0
  0
LINE
  5
7EC
330
1F
100
AcDbEntity
  8
0
100
AcDbLine
 10
91.22465127551514
 20
153.2110459278882
 30
0.0
 11
92.24617925726164
 21
154.2325739096347
 31
0.0
  0
LINE
  5
7ED
330
1F
100
AcDbEntity
  8
0
100
AcDbLine
 10
88.71759957213047
 20
150.7414708839064
 30
0.0
 11
90.10616975904658
 21
152.1300410708226
 31
0.0
  0
LINE
  5
7EE
330
1F
100
AcDbEntity
  8
0
100
AcDbLine
 10
91.19746655207992
 20
153.2213378638559
 30
0.0
 11
92.2221542472043
 21
154.2460255589803
 31
0.0
  0
LINE
  5
7EF
330
1F
100
AcDbEntity
  8
0
100
AcDbLine
 10
88.70562159942298
 20
150.7669695706018
 30
0.0
 11
90.10722000709998
 21
152.1685679782788
 31
0.0
  0
LINE
  5
7F0
330
1F
100
AcDbEntity
  8
0
100
AcDbLine
 10
91.16938882608791
 20
153.2307367972668
 30
0.0
 11
92.19778079614613
 21
154.259128767325
 31
0.0
  0
LINE
  5
7F1
330
1F
100
AcDbEntity
  8
0
100
AcDbLine
 10
88.6940467018874
 20
150.7928713324691
 30
0.0
 11
90.1086866133761
 21
152.2075112439578
 31
0.0
  0
LINE
  5
7F2
330
1F
100
AcDbEntity
  8
0
100
AcDbLine
 10
91.14044255863418
 20
153.2392671892159
 30
0.0
 11
92.17318296986211
 21
154.2720076004439
 31
0.0
  0
LINE
  5
7F3
330
1F
100
AcDbEntity
  8
0
100
AcDbLine
 10
88.68273827633931
 20
150.8190395663239
 30
0.0
 11
90.11069227753256
 21
152.2469935675172
 31
0.0
  0
LINE
  5
7F4
330
1F
100
AcDbEntity
  8
0
100
AcDbLine
 10
91.11056586558459
 20
153.2468671555692
 30
0.0
 11
92.14815216713306
 21
154.2844534571177
 31
0.0
  0
LINE
  5
7F5
330
1F
100
AcDbEntity
  8
0
100
AcDbLine
 10
88.67164268417594
 20
150.8454206335634
 30
0.0
 11
90.11325254720741
 21
152.2870304965949
 31
0.0
  0
LINE
  5
7F6
330
1F
100
AcDbEntity
  8
0
100
AcDbLine
 10
91.07949304102804
 20
153.2532709904156
 30
0.0
 11
92.1228315432164
 21
154.2966094926039
 31
0.0
  0
LINE
  5
7F7
330
1F
100
AcDbEntity
  8
0
100
AcDbLine
 10
88.66100507375857
 20
150.872259682549
 30
0.0
 11
90.1165956103348
 21
152.3278502191252
 31
0.0
  0
LINE
  5
7F8
330
1F
100
AcDbEntity
  8
0
100
AcDbLine
 10
91.04721687327842
 20
153.2584714820688
 30
0.0
 11
92.09727981949493
 21
154.3085344282853
 31
0.0
  0
LINE
  5
7F9
330
1F
100
AcDbEntity
  8
0
100
AcDbLine
 10
88.65057842858779
 20
150.8993096967811
 30
0.0
 11
90.12065093362726
 21
152.3693822018205
 31
0.0
  0
LINE
  5
7FA
330
1F
100
AcDbEntity
  8
0
100
AcDbLine
 10
91.01359738904749
 20
153.2623286572408
 30
0.0
 11
92.07126073841245
 21
154.3199920066057
 31
0.0
  0
LINE
  5
7FB
330
1F
100
AcDbEntity
  8
0
100
AcDbLine
 10
88.64040652074854
 20
150.9266144483447
 30
0.0
 11
90.12551439551096
 21
152.4117223231071
 31
0.0
  0
LINE
  5
7FC
330
1F
100
AcDbEntity
  8
0
100
AcDbLine
 10
90.97860708668942
 20
153.2648150142856
 30
0.0
 11
92.04500241309904
 21
154.3312103406952
 31
0.0
  0
LINE
  5
7FD
330
1F
100
AcDbEntity
  8
0
100
AcDbLine
 10
88.6306334767166
 20
150.9543180637156
 30
0.0
 11
90.13125938552828
 21
152.4549439725273
 31
0.0
  0
LINE
  5
7FE
330
1F
100
AcDbEntity
  8
0
100
AcDbLine
 10
90.94257444440989
 20
153.2662590314089
 30
0.0
 11
92.0184785409074
 21
154.3421631279064
 31
0.0
  0
LINE
  5
7FF
330
1F
100
AcDbEntity
  8
0
100
AcDbLine
 10
88.62105643897164
 20
150.9822176853736
 30
0.0
 11
90.13790274340604
 21
152.499063989808
 31
0.0
  0
LINE
  5
800
330
1F
100
AcDbEntity
  8
0
100
AcDbLine
 10
90.90519168911072
 20
153.2663529355127
 30
0.0
 11
91.99149940568338
 21
154.3526606520853
 31
0.0
  0
LINE
  5
801
330
1F
100
AcDbEntity
  8
0
100
AcDbLine
 10
88.611761846351
 20
151.0103997521558
 30
0.0
 11
90.14590714191948
 21
152.5445450477243
 31
0.0
  0
LINE
  5
802
330
1F
100
AcDbEntity
  8
0
100
AcDbLine
 10
90.86584994686005
 20
153.2644878526649
 30
0.0
 11
91.96429627733639
 21
154.3629341831412
 31
0.0
  0
LINE
  5
803
330
1F
100
AcDbEntity
  8
0
100
AcDbLine
 10
88.60280614497239
 20
151.0389207101801
 30
0.0
 11
90.15556448713679
 21
152.5916790523445
 31
0.0
  0
LINE
  5
804
330
1F
100
AcDbEntity
  8
0
100
AcDbLine
 10
90.8251318763978
 20
153.2612464416055
 30
0.0
 11
91.93676597172852
 21
154.3728805369362
 31
0.0
  0
LINE
  5
805
330
1F
100
AcDbEntity
  8
0
100
AcDbLine
 10
88.59403028333519
 20
151.0676215079458
 30
0.0
 11
90.16759430672073
 21
152.6411855313313
 31
0.0
  0
LINE
  5
806
330
1F
100
AcDbEntity
  8
0
100
AcDbLine
 10
90.78171704961694
 20
153.2553082742275
 30
0.0
 11
91.90882251459225
 21
154.3824137392028
 31
0.0
  0
LINE
  5
807
330
1F
100
AcDbEntity
  8
0
100
AcDbLine
 10
88.58557375280569
 20
151.0966416368192
 30
0.0
 11
90.18304964042
 21
152.6941175244335
 31
0.0
  0
LINE
  5
808
330
1F
100
AcDbEntity
  8
0
100
AcDbLine
 10
90.7344666485025
 20
153.245534532516
 30
0.0
 11
91.8806659951594
 21
154.3917338791729
 31
0.0
  0
LINE
  5
809
330
1F
100
AcDbEntity
  8
0
100
AcDbLine
 10
88.57739862199409
 20
151.1259431654104
 30
0.0
 11
90.20290414328218
 21
152.7514486866985
 31
0.0
  0
LINE
  5
80A
330
1F
100
AcDbEntity
  8
0
100
AcDbLine
 10
90.6817954048545
 20
153.2303399482709
 30
0.0
 11
91.85211832920312
 21
154.4006628726195
 31
0.0
  0
LINE
  5
80B
330
1F
100
AcDbEntity
  8
0
100
AcDbLine
 10
88.56941209386324
 20
151.1554332966825
 30
0.0
 11
90.2298514855633
 21
152.8158726883825
 31
0.0
  0
LINE
  5
80C
330
1F
100
AcDbEntity
  8
0
100
AcDbLine
 10
90.6212779005692
 20
153.2072991033884
 30
0.0
 11
91.82324288882208
 21
154.4092640916413
 31
0.0
  0
LINE
  5
80D
330
1F
100
AcDbEntity
  8
0
100
AcDbLine
 10
88.56177625055219
 20
151.1852741127743
 30
0.0
 11
90.27745330818584
 21
152.900951170408
 31
0.0
  0
LINE
  5
80E
330
1F
100
AcDbEntity
  8
0
100
AcDbLine
 10
90.54376753980404
 20
153.1672654020261
 30
0.0
 11
91.79414613775447
 21
154.4176439999766
 31
0.0
  0
LINE
  5
80F
330
1F
100
AcDbEntity
  8
0
100
AcDbLine
 10
88.55439244554584
 20
151.2153669671708
 30
0.0
 11
91.76462913324885
 21
154.4256036548738
 31
0.0
  0
LINE
  5
810
330
1F
100
AcDbEntity
  8
0
100
AcDbLine
 10
88.54719047256386
 20
151.2456416535917
 30
0.0
 11
91.73483299817258
 21
154.4332841792005
 31
0.0
  0
LINE
  5
811
330
1F
100
AcDbEntity
  8
0
100
AcDbLine
 10
88.54039704686565
 20
151.2763248872964
 30
0.0
 11
91.70484160392753
 21
154.4407694443583
 31
0.0
  0
LINE
  5
812
330
1F
100
AcDbEntity
  8
0
100
AcDbLine
 10
88.53383086212499
 20
151.3072353619586
 30
0.0
 11
91.67436877010958
 21
154.4477732699432
 31
0.0
  0
LINE
  5
813
330
1F
100
AcDbEntity
  8
0
100
AcDbLine
 10
88.52748565798657
 20
151.3383668172231
 30
0.0
 11
91.64368996511713
 21
154.4545711243537
 31
0.0
  0
LINE
  5
814
330
1F
100
AcDbEntity
  8
0
100
AcDbLine
 10
88.5215976878619
 20
151.3699555065013
 30
0.0
 11
91.61273634368422
 21
154.4610941623236
 31
0.0
  0
LINE
  5
815
330
1F
100
AcDbEntity
  8
0
100
AcDbLine
 10
88.51595028048766
 20
151.40178475853
 30
0.0
 11
91.58136388245264
 21
154.4671983604949
 31
0.0
  0
LINE
  5
816
330
1F
100
AcDbEntity
  8
0
100
AcDbLine
 10
88.51056419340783
 20
151.433875330853
 30
0.0
 11
91.5497658943307
 21
154.4730770317759
 31
0.0
  0
LINE
  5
817
330
1F
100
AcDbEntity
  8
0
100
AcDbLine
 10
88.50562971767175
 20
151.4664175145198
 30
0.0
 11
91.51784663868598
 21
154.478634435534
 31
0.0
  0
LINE
  5
818
330
1F
100
AcDbEntity
  8
0
100
AcDbLine
 10
88.5009187929665
 20
151.4991832492175
 30
0.0
 11
91.48556823094295
 21
154.4838326871939
 31
0.0
  0
LINE
  5
819
330
1F
100
AcDbEntity
  8
0
100
AcDbLine
 10
88.4965097582301
 20
151.532250873884
 30
0.0
 11
91.4530891369997
 21
154.4888302526535
 31
0.0
  0
LINE
  5
81A
330
1F
100
AcDbEntity
  8
0
100
AcDbLine
 10
88.49249872877738
 20
151.5657165038341
 30
0.0
 11
91.42022478154233
 21
154.4934425565991
 31
0.0
  0
LINE
  5
81B
330
1F
100
AcDbEntity
  8
0
100
AcDbLine
 10
88.48869191972022
 20
151.5993863541798
 30
0.0
 11
91.38709357161086
 21
154.4977880060705
 31
0.0
  0
LINE
  5
81C
330
1F
100
AcDbEntity
  8
0
100
AcDbLine
 10
88.4852358307395
 20
151.633406924602
 30
0.0
 11
91.3537660924083
 21
154.5019371862708
 31
0.0
  0
LINE
  5
81D
330
1F
100
AcDbEntity
  8
0
100
AcDbLine
 10
88.4820918914718
 20
151.6677396447372
 30
0.0
 11
91.32010186750668
 21
154.5057496207721
 31
0.0
  0
LINE
  5
81E
330
1F
100
AcDbEntity
  8
0
100
AcDbLine
 10
88.47926856548115
 20
151.7023929781494
 30
0.0
 11
91.28612911469911
 21
154.5092535273674
 31
0.0
  0
LINE
  5
81F
330
1F
100
AcDbEntity
  8
0
100
AcDbLine
 10
88.4767747879161
 20
151.7373758599873
 30
0.0
 11
91.25184699340954
 21
154.5124480654807
 31
0.0
  0
LINE
  5
820
330
1F
100
AcDbEntity
  8
0
100
AcDbLine
 10
88.4746199985973
 20
151.7726977300713
 30
0.0
 11
91.21723398330894
 21
154.515311714783
 31
0.0
  0
LINE
  5
821
330
1F
100
AcDbEntity
  8
0
100
AcDbLine
 10
88.47281328381803
 20
151.8083676746949
 30
0.0
 11
91.1822667983462
 21
154.5178211892231
 31
0.0
  0
LINE
  5
822
330
1F
100
AcDbEntity
  8
0
100
AcDbLine
 10
88.47133798288367
 20
151.8443690331635
 30
0.0
 11
91.14692017423404
 21
154.5199512245138
 31
0.0
  0
LINE
  5
823
330
1F
100
AcDbEntity
  8
0
100
AcDbLine
 10
88.47015515516632
 20
151.880662864849
 30
0.0
 11
91.11116856871922
 21
154.5216762784019
 31
0.0
  0
LINE
  5
824
330
1F
100
AcDbEntity
  8
0
100
AcDbLine
 10
88.469208873989
 20
151.9171932430746
 30
0.0
 11
91.07505623128039
 21
154.523040600366
 31
0.0
  0
LINE
  5
825
330
1F
100
AcDbEntity
  8
0
100
AcDbLine
 10
88.46843951469182
 20
151.9539005431803
 30
0.0
 11
91.03863371600106
 21
154.5240947444895
 31
0.0
  0
LINE
  5
826
330
1F
100
AcDbEntity
  8
0
100
AcDbLine
 10
88.46778466422248
 20
151.9907223521138
 30
0.0
 11
91.0019631674184
 21
154.5249008553097
 31
0.0
  0
LINE
  5
827
330
1F
100
AcDbEntity
  8
0
100
AcDbLine
 10
88.46746158987399
 20
152.0278759371682
 30
0.0
 11
90.96511158114807
 21
154.5255259284423
 31
0.0
  0
LINE
  5
828
330
1F
100
AcDbEntity
  8
0
100
AcDbLine
 10
88.46811821792677
 20
152.0660092246239
 30
0.0
 11
90.9281495728782
 21
154.5260405795753
 31
0.0
  0
LINE
  5
829
330
1F
100
AcDbEntity
  8
0
100
AcDbLine
 10
88.46887844285416
 20
152.1042461089542
 30
0.0
 11
90.89057014663098
 21
154.525937812731
 31
0.0
  0
LINE
  5
82A
330
1F
100
AcDbEntity
  8
0
100
AcDbLine
 10
88.46979306406739
 20
152.1426373895703
 30
0.0
 11
90.85236025560978
 21
154.5252045811127
 31
0.0
  0
LINE
  5
82B
330
1F
100
AcDbEntity
  8
0
100
AcDbLine
 10
88.47091668495467
 20
152.1812376698604
 30
0.0
 11
90.81406312077209
 21
154.5243841056779
 31
0.0
  0
LINE
  5
82C
330
1F
100
AcDbEntity
  8
0
100
AcDbLine
 10
88.47230954008484
 20
152.2201071843935
 30
0.0
 11
90.77555103814503
 21
154.5233486824537
 31
0.0
  0
LINE
  5
82D
330
1F
100
AcDbEntity
  8
0
100
AcDbLine
 10
88.47409355250835
 20
152.2593678562199
 30
0.0
 11
90.73676844083512
 21
154.5220427445466
 31
0.0
  0
LINE
  5
82E
330
1F
100
AcDbEntity
  8
0
100
AcDbLine
 10
88.4764142545337
 20
152.2991652176481
 30
0.0
 11
90.69764832171282
 21
154.5203992848272
 31
0.0
  0
LINE
  5
82F
330
1F
100
AcDbEntity
  8
0
100
AcDbLine
 10
88.4792615785916
 20
152.3394892011089
 30
0.0
 11
90.65810814281467
 21
154.518335765332
 31
0.0
  0
LINE
  5
830
330
1F
100
AcDbEntity
  8
0
100
AcDbLine
 10
88.48270207249143
 20
152.3804063544116
 30
0.0
 11
90.61806189711426
 21
154.5157661790344
 31
0.0
  0
LINE
  5
831
330
1F
100
AcDbEntity
  8
0
100
AcDbLine
 10
88.48674203665014
 20
152.4219229779732
 30
0.0
 11
90.57739047833563
 21
154.5125714196587
 31
0.0
  0
LINE
  5
832
330
1F
100
AcDbEntity
  8
0
100
AcDbLine
 10
88.4913831599955
 20
152.4640407607214
 30
0.0
 11
90.53606882066035
 21
154.5087264213863
 31
0.0
  0
LINE
  5
833
330
1F
100
AcDbEntity
  8
0
100
AcDbLine
 10
88.49662405319197
 20
152.5067583133208
 30
0.0
 11
90.49406871470582
 21
154.5042029748346
 31
0.0
  0
LINE
  5
834
330
1F
100
AcDbEntity
  8
0
100
AcDbLine
 10
88.50245999094196
 20
152.5500709104737
 30
0.0
 11
90.4513493121438
 21
154.4989602316755
 31
0.0
  0
LINE
  5
835
330
1F
100
AcDbEntity
  8
0
100
AcDbLine
 10
88.50889438459926
 20
152.5939819635338
 30
0.0
 11
90.40792083954226
 21
154.4930084184768
 31
0.0
  0
LINE
  5
836
330
1F
100
AcDbEntity
  8
0
100
AcDbLine
 10
88.51587948986281
 20
152.6384437282003
 30
0.0
 11
90.36375803803575
 21
154.4863222763732
 31
0.0
  0
LINE
  5
837
330
1F
100
AcDbEntity
  8
0
100
AcDbLine
 10
88.52366108710737
 20
152.6837019848477
 30
0.0
 11
90.31877100438038
 21
154.4788119021208
 31
0.0
  0
LINE
  5
838
330
1F
100
AcDbEntity
  8
0
100
AcDbLine
 10
88.53226452278398
 20
152.7297820799272
 30
0.0
 11
90.2729417865878
 21
154.4704593437311
 31
0.0
  0
LINE
  5
839
330
1F
100
AcDbEntity
  8
0
100
AcDbLine
 10
88.54182716248089
 20
152.776821379027
 30
0.0
 11
90.22615893995325
 21
154.4611531564994
 31
0.0
  0
LINE
  5
83A
330
1F
100
AcDbEntity
  8
0
100
AcDbLine
 10
88.55252850381709
 20
152.8249993797661
 30
0.0
 11
90.17829227786424
 21
154.4507631538133
 31
0.0
  0
LINE
  5
83B
330
1F
100
AcDbEntity
  8
0
100
AcDbLine
 10
88.56455372812123
 20
152.8745012634731
 30
0.0
 11
90.12918504584803
 21
154.4391325811999
 31
0.0
  0
LINE
  5
83C
330
1F
100
AcDbEntity
  8
0
100
AcDbLine
 10
88.57810207942633
 20
152.9255262741811
 30
0.0
 11
90.07867641961631
 21
154.4261006143711
 31
0.0
  0
LINE
  5
83D
330
1F
100
AcDbEntity
  8
0
100
AcDbLine
 10
88.59328287406375
 20
152.9781837282214
 30
0.0
 11
90.02656393298567
 21
154.4114647871433
 31
0.0
  0
LINE
  5
83E
330
1F
100
AcDbEntity
  8
0
100
AcDbLine
 10
88.61021385167088
 20
153.0325913652314
 30
0.0
 11
89.97268655752455
 21
154.3950640710851
 31
0.0
  0
LINE
  5
83F
330
1F
100
AcDbEntity
  8
0
100
AcDbLine
 10
88.62914272587453
 20
153.088996898838
 30
0.0
 11
89.91660062020964
 21
154.3764547931731
 31
0.0
  0
LINE
  5
840
330
1F
100
AcDbEntity
  8
0
100
AcDbLine
 10
88.65039580027677
 20
153.1477266326431
 30
0.0
 11
89.8581490446482
 21
154.3554798770145
 31
0.0
  0
LINE
  5
841
330
1F
100
AcDbEntity
  8
0
100
AcDbLine
 10
88.67426023083927
 20
153.2090677226085
 30
0.0
 11
89.79703121168232
 21
154.3318387034515
 31
0.0
  0
LINE
  5
842
330
1F
100
AcDbEntity
  8
0
100
AcDbLine
 10
88.70183243346769
 20
153.2741165846398
 30
0.0
 11
89.73209681880132
 21
154.3043809699734
 31
0.0
  0
LINE
  5
843
330
1F
100
AcDbEntity
  8
0
100
AcDbLine
 10
88.73445930073137
 20
153.3442201113064
 30
0.0
 11
89.66254125851862
 21
154.2723020690936
 31
0.0
  0
LINE
  5
844
330
1F
100
AcDbEntity
  8
0
100
AcDbLine
 10
88.77447629824869
 20
153.4217137682266
 30
0.0
 11
89.58563412900426
 21
154.2328715989821
 31
0.0
  0
LINE
  5
845
330
1F
100
AcDbEntity
  8
0
100
AcDbLine
 10
88.8248537691475
 20
153.5095678985282
 30
0.0
 11
89.49830363357302
 21
154.1830177629538
 31
0.0
  0
LINE
  5
846
330
1F
100
AcDbEntity
  8
0
100
AcDbLine
 10
88.89402237297358
 20
153.6162131617572
 30
0.0
 11
89.39130019068159
 21
154.1134909794652
 31
0.0
  0
LINE
  5
847
330
1F
100
AcDbEntity
  8
0
100
AcDbLine
 10
89.02164272949732
 20
153.7813101776838
 30
0.0
 11
89.22382532198196
 21
153.9834927701685
 31
0.0
  0
ENDSEC
  0
SECTION
  2
OBJECTS
  0
DICTIONARY
  5
C
330
0
100
AcDbDictionary
281
     1
  3
ACAD_COLOR
350
6C
  3
ACAD_GROUP
350
D
  3
ACAD_LAYOUT
350
1A
  3
ACAD_MATERIAL
350
6B
  3
ACAD_MLEADERSTYLE
350
125
  3
ACAD_MLINESTYLE
350
17
  3
ACAD_PLOTSETTINGS
350
19
  3
ACAD_PLOTSTYLENAME
350
E
  3
ACAD_SCALELIST
350
3B
  3
ACAD_TABLESTYLE
350
92
  3
ACAD_VISUALSTYLE
350
2A
  3
AcDbVariableDictionary
350
59
  0
DICTIONARY
  5
6C
102
{ACAD_REACTORS
330
C
102
}
330
C
100
AcDbDictionary
281
     1
  0
DICTIONARY
  5
D
102
{ACAD_REACTORS
330
C
102
}
330
C
100
AcDbDictionary
281
     1
  0
DICTIONARY
  5
1A
102
{ACAD_REACTORS
330
C
102
}
330
C
100
AcDbDictionary
281
     1
  3
Layout1
350
74
  3
Layout2
350
26
  3
Model
350
22
  0
DICTIONARY
  5
6B
102
{ACAD_REACTORS
330
C
102
}
330
C
100
AcDbDictionary
281
     1
  0
DICTIONARY
  5
125
102
{ACAD_REACTORS
330
C
102
}
330
C
100
AcDbDictionary
281
     1
  0
DICTIONARY
  5
17
102
{ACAD_REACTORS
330
C
102
}
330
C
100
AcDbDictionary
281
     1
  3
Standard
350
18
  0
DICTIONARY
  5
19
102
{ACAD_REACTORS
330
C
102
}
330
C
100
AcDbDictionary
281
     1
  0
ACDBDICTIONARYWDFLT
  5
E
102
{ACAD_REACTORS
330
C
102
}
330
C
100
AcDbDictionary
281
     1
  3
Normal
350
F
100
AcDbDictionaryWithDefault
340
F
  0
DICTIONARY
  5
3B
102
{ACAD_REACTORS
330
C
102
}
330
C
100
AcDbDictionary
281
     1
  3
A0
350
3C
  3
A1
350
3D
  3
A2
350
3E
  3
A3
350
3F
  3
A4
350
40
  3
A5
350
41
  3
A6
350
42
  3
A7
350
43
  3
A8
350
44
  3
A9
350
45
  3
B0
350
46
  3
B1
350
47
  3
B2
350
48
  3
B3
350
49
  3
B4
350
4A
  3
B5
350
4B
  3
B6
350
4C
  3
B7
350
4D
  3
B8
350
4E
  3
B9
350
4F
  3
C0
350
50
  3
C1
350
51
  3
C2
350
52
  3
C3
350
53
  3
C4
350
54
  3
C5
350
55
  3
C6
350
56
  3
C7
350
57
  3
C8
350
58
  3
C9
350
22B
  3
D0
350
22C
  3
D1
350
5B
  3
D2
350
5C
  0
DICTIONARY
  5
92
102
{ACAD_REACTORS
330
C
102
}
330
C
100
AcDbDictionary
281
     1
  3
Standard
350
93
  0
DICTIONARY
  5
2A
102
{ACAD_REACTORS
330
C
102
}
330
C
100
AcDbDictionary
281
     1
  3
2DWIREFRAME
350
2F
  3
3D HIDDEN
350
31
  3
3DWIREFRAME
350
30
  3
BASIC
350
32
  3
BRIGHTEN
350
36
  3
COLORCHANGE
350
3A
  3
CONCEPTUAL
350
34
  3
DIM
350
35
  3
FACEPATTERN
350
39
  3
FLAT
350
2B
  3
FLATWITHEDGES
350
2C
  3
GOURAUD
350
2D
  3
GOURAUDWITHEDGES
350
2E
  3
LINEPATTERN
350
38
  3
REALISTIC
350
33
  3
THICKEN
350
37
  0
DICTIONARY
  5
59
102
{ACAD_REACTORS
330
C
102
}
330
C
100
AcDbDictionary
281
     1
  3
CANNOSCALE
350
123
  3
CTABLESTYLE
350
98
  3
HIDETEXT
350
240
  3
PSOLHEIGHT
350
231
  3
PSOLWIDTH
350
126
  0
LAYOUT
  5
74
102
{ACAD_REACTORS
330
1A
102
}
330
1A
100
AcDbPlotSettings
  1

  2
none_device
  4

  6

 40
0.0
 41
0.0
 42
0.0
 43
0.0
 44
0.0
 45
0.0
 46
0.0
 47
0.0
 48
0.0
 49
0.0
140
0.0
141
0.0
142
1.0
143
1.0
 70
   688
 72
     0
 73
     0
 74
     5
  7

 75
    16
 76
     0
 77
     2
 78
   300
147
1.0
148
0.0
149
0.0
100
AcDbLayout
  1
Layout1
 70
     1
 71
     1
 10
0.0
 20
0.0
 11
420.0
 21
297.0
 12
0.0
 22
0.0
 32
0.0
 14
1.000000000000000E+20
 24
1.000000000000000E+20
 34
1.000000000000000E+20
 15
-1.000000000000000E+20
 25
-1.000000000000000E+20
 35
-1.000000000000000E+20
146
0.0
 13
0.0
 23
0.0
 33
0.0
 16
1.0
 26
0.0
 36
0.0
 17
0.0
 27
1.0
 37
0.0
 76
     0
330
73
  0
LAYOUT
  5
26
102
{ACAD_REACTORS
330
1A
102
}
330
1A
100
AcDbPlotSettings
  1

  2
none_device
  4

  6

 40
0.0
 41
0.0
 42
0.0
 43
0.0
 44
0.0
 45
0.0
 46
0.0
 47
0.0
 48
0.0
 49
0.0
140
0.0
141
0.0
142
1.0
143
1.0
 70
   688
 72
     0
 73
     0
 74
     5
  7

 75
    16
 76
     0
 77
     2
 78
   300
147
1.0
148
0.0
149
0.0
100
AcDbLayout
  1
Layout2
 70
     1
 71
     2
 10
0.0
 20
0.0
 11
0.0
 21
0.0
 12
0.0
 22
0.0
 32
0.0
 14
0.0
 24
0.0
 34
0.0
 15
0.0
 25
0.0
 35
0.0
146
0.0
 13
0.0
 23
0.0
 33
0.0
 16
1.0
 26
0.0
 36
0.0
 17
0.0
 27
1.0
 37
0.0
 76
     0
330
23
  0
LAYOUT
  5
22
102
{ACAD_REACTORS
330
1A
102
}
330
1A
100
AcDbPlotSettings
  1

  2
none_device
  4

  6

 40
0.0
 41
0.0
 42
0.0
 43
0.0
 44
0.0
 45
0.0
 46
0.0
 47
0.0
 48
0.0
 49
0.0
140
0.0
141
0.0
142
1.0
143
1.0
 70
 11952
 72
     0
 73
     0
 74
     0
  7

 75
     0
 76
     0
 77
     2
 78
   300
147
1.0
148
0.0
149
0.0
100
AcDbLayout
  1
Model
 70
     1
 71
     0
 10
0.0
 20
0.0
 11
279.4
 21
215.9
 12
0.0
 22
0.0
 32
0.0
 14
88.46731504450112
 24
149.488834092183
 34
0.0
 15
113.5286268051364
 25
154.5262836648326
 35
0.0
146
0.0
 13
0.0
 23
0.0
 33
0.0
 16
1.0
 26
0.0
 36
0.0
 17
0.0
 27
1.0
 37
0.0
 76
     0
330
1F
  0
MLINESTYLE
  5
18
102
{ACAD_REACTORS
330
17
102
}
330
17
100
AcDbMlineStyle
  2
Standard
 70
     0
  3

 62
   256
 51
90.0
 52
90.0
 71
     2
 49
0.5
 62
   256
  6
BYLAYER
 49
-0.5
 62
   256
  6
BYLAYER
  0
ACDBPLACEHOLDER
  5
F
102
{ACAD_REACTORS
330
E
102
}
330
E
  0
SCALE
  5
3C
102
{ACAD_REACTORS
330
3B
102
}
330
3B
100
AcDbScale
 70
     0
300
1:1
140
1.0
141
1.0
290
     1
  0
SCALE
  5
3D
102
{ACAD_REACTORS
330
3B
102
}
330
3B
100
AcDbScale
 70
     0
300
1:2
140
1.0
141
2.0
290
     1
  0
SCALE
  5
3E
102
{ACAD_REACTORS
330
3B
102
}
330
3B
100
AcDbScale
 70
     0
300
1:4
140
1.0
141
4.0
290
     1
  0
SCALE
  5
3F
102
{ACAD_REACTORS
330
3B
102
}
330
3B
100
AcDbScale
 70
     0
300
1:5
140
1.0
141
5.0
290
     1
  0
SCALE
  5
40
102
{ACAD_REACTORS
330
3B
102
}
330
3B
100
AcDbScale
 70
     0
300
1:8
140
1.0
141
8.0
290
     1
  0
SCALE
  5
41
102
{ACAD_REACTORS
330
3B
102
}
330
3B
100
AcDbScale
 70
     0
300
1:10
140
1.0
141
10.0
290
     1
  0
SCALE
  5
42
102
{ACAD_REACTORS
330
3B
102
}
330
3B
100
AcDbScale
 70
     0
300
1:16
140
1.0
141
16.0
290
     1
  0
SCALE
  5
43
102
{ACAD_REACTORS
330
3B
102
}
330
3B
100
AcDbScale
 70
     0
300
1:20
140
1.0
141
20.0
290
     1
  0
SCALE
  5
44
102
{ACAD_REACTORS
330
3B
102
}
330
3B
100
AcDbScale
 70
     0
300
1:30
140
1.0
141
30.0
290
     1
  0
SCALE
  5
45
102
{ACAD_REACTORS
330
3B
102
}
330
3B
100
AcDbScale
 70
     0
300
1:40
140
1.0
141
40.0
290
     1
  0
SCALE
  5
46
102
{ACAD_REACTORS
330
3B
102
}
330
3B
100
AcDbScale
 70
     0
300
1:50
140
1.0
141
50.0
290
     1
  0
SCALE
  5
47
102
{ACAD_REACTORS
330
3B
102
}
330
3B
100
AcDbScale
 70
     0
300
1:100
140
1.0
141
100.0
290
     1
  0
SCALE
  5
48
102
{ACAD_REACTORS
330
3B
102
}
330
3B
100
AcDbScale
 70
     0
300
2:1
140
2.0
141
1.0
290
     1
  0
SCALE
  5
49
102
{ACAD_REACTORS
330
3B
102
}
330
3B
100
AcDbScale
 70
     0
300
4:1
140
4.0
141
1.0
290
     1
  0
SCALE
  5
4A
102
{ACAD_REACTORS
330
3B
102
}
330
3B
100
AcDbScale
 70
     0
300
8:1
140
8.0
141
1.0
290
     1
  0
SCALE
  5
4B
102
{ACAD_REACTORS
330
3B
102
}
330
3B
100
AcDbScale
 70
     0
300
10:1
140
10.0
141
1.0
290
     1
  0
SCALE
  5
4C
102
{ACAD_REACTORS
330
3B
102
}
330
3B
100
AcDbScale
 70
     0
300
100:1
140
100.0
141
1.0
290
     1
  0
SCALE
  5
4D
102
{ACAD_REACTORS
330
3B
102
}
330
3B
100
AcDbScale
 70
     0
300
1/128" = 1'-0"
140
0.0078125
141
12.0
290
     1
  0
SCALE
  5
4E
102
{ACAD_REACTORS
330
3B
102
}
330
3B
100
AcDbScale
 70
     0
300
1/64" = 1'-0"
140
0.015625
141
12.0
290
     1
  0
SCALE
  5
4F
102
{ACAD_REACTORS
330
3B
102
}
330
3B
100
AcDbScale
 70
     0
300
1/32" = 1'-0"
140
0.03125
141
12.0
290
     1
  0
SCALE
  5
50
102
{ACAD_REACTORS
330
3B
102
}
330
3B
100
AcDbScale
 70
     0
300
1/16" = 1'-0"
140
0.0625
141
12.0
290
     1
  0
SCALE
  5
51
102
{ACAD_REACTORS
330
3B
102
}
330
3B
100
AcDbScale
 70
     0
300
3/32" = 1'-0"
140
0.09375
141
12.0
290
     1
  0
SCALE
  5
52
102
{ACAD_REACTORS
330
3B
102
}
330
3B
100
AcDbScale
 70
     0
300
1/8" = 1'-0"
140
0.125
141
12.0
290
     1
  0
SCALE
  5
53
102
{ACAD_REACTORS
330
3B
102
}
330
3B
100
AcDbScale
 70
     0
300
3/16" = 1'-0"
140
0.1875
141
12.0
290
     1
  0
SCALE
  5
54
102
{ACAD_REACTORS
330
3B
102
}
330
3B
100
AcDbScale
 70
     0
300
1/4" = 1'-0"
140
0.25
141
12.0
290
     1
  0
SCALE
  5
55
102
{ACAD_REACTORS
330
3B
102
}
330
3B
100
AcDbScale
 70
     0
300
3/8" = 1'-0"
140
0.375
141
12.0
290
     1
  0
SCALE
  5
56
102
{ACAD_REACTORS
330
3B
102
}
330
3B
100
AcDbScale
 70
     0
300
1/2" = 1'-0"
140
0.5
141
12.0
290
     1
  0
SCALE
  5
57
102
{ACAD_REACTORS
330
3B
102
}
330
3B
100
AcDbScale
 70
     0
300
3/4" = 1'-0"
140
0.75
141
12.0
290
     1
  0
SCALE
  5
58
102
{ACAD_REACTORS
330
3B
102
}
330
3B
100
AcDbScale
 70
     0
300
1" = 1'-0"
140
1.0
141
12.0
290
     1
  0
SCALE
  5
22B
102
{ACAD_REACTORS
330
3B
102
}
330
3B
100
AcDbScale
 70
     0
300
1-1/2" = 1'-0"
140
1.5
141
12.0
290
     1
  0
SCALE
  5
22C
102
{ACAD_REACTORS
330
3B
102
}
330
3B
100
AcDbScale
 70
     0
300
3" = 1'-0"
140
3.0
141
12.0
290
     1
  0
SCALE
  5
5B
102
{ACAD_REACTORS
330
3B
102
}
330
3B
100
AcDbScale
 70
     0
300
6" = 1'-0"
140
6.0
141
12.0
290
     1
  0
SCALE
  5
5C
102
{ACAD_REACTORS
330
3B
102
}
330
3B
100
AcDbScale
 70
     0
300
1'-0" = 1'-0"
140
12.0
141
12.0
290
     1
  0
TABLESTYLE
  5
93
102
{ACAD_REACTORS
330
92
102
}
330
92
100
AcDbTableStyle
  3
Standard
 70
     0
 71
     0
 40
0.06
 41
0.06
280
     0
281
     0
  7
Standard
140
0.18
170
     2
 62
     0
 63
     7
283
     0
274
    -2
284
     1
 64
     0
275
    -2
285
     1
 65
     0
276
    -2
286
     1
 66
     0
277
    -2
287
     1
 67
     0
278
    -2
288
     1
 68
     0
279
    -2
289
     1
 69
     0
  7
Standard
140
0.25
170
     5
 62
     0
 63
     7
283
     0
274
    -2
284
     1
 64
     0
275
    -2
285
     1
 65
     0
276
    -2
286
     1
 66
     0
277
    -2
287
     1
 67
     0
278
    -2
288
     1
 68
     0
279
    -2
289
     1
 69
     0
  7
Standard
140
0.18
170
     5
 62
     0
 63
     7
283
     0
274
    -2
284
     1
 64
     0
275
    -2
285
     1
 65
     0
276
    -2
286
     1
 66
     0
277
    -2
287
     1
 67
     0
278
    -2
288
     1
 68
     0
279
    -2
289
     1
 69
     0
  0
ACAD_PROXY_OBJECT
  5
2F
102
{ACAD_REACTORS
330
2A
102
}
330
2A
100
AcDbProxyObject
 90
      499
 91
      506
 95
       25
 70
     0
 93
      590
310
42CC9915DA5C99599C985B595049028333333333333E3BF0000000000000FB0201C00030C02405048070000C3008010100C300405A00404030C014050640A01C00030C010500B20280D4
1001
ACAD
1000
AcDbSavedByObjectVersion
1070
     0
  0
ACAD_PROXY_OBJECT
  5
31
102
{ACAD_REACTORS
330
2A
102
}
330
2A
100
AcDbProxyObject
 90
      499
 91
      506
 95
       25
 70
     0
 93
      654
310
424CD108121A5919195B90640502408333333333333E3BF0000000000000FB0201C00030C02409028070000C3008010100C3004080000000000004440A00404030C014050640A01C00030C010300B20280D4
1001
ACAD
1000
AcDbSavedByObjectVersion
1070
     0
  0
ACAD_PROXY_OBJECT
  5
30
102
{ACAD_REACTORS
330
2A
102
}
330
2A
100
AcDbProxyObject
 90
      499
 91
      506
 95
       25
 70
     0
 93
      590
310
42CCD915DA5C99599C985B595059028333333333333E3BF0000000000000FB0201C00030C02405048070000C3008010100C300405A00404030C014050640A01C00030C010500B20280D4
1001
ACAD
1000
AcDbSavedByObjectVersion
1070
     0
  0
ACAD_PROXY_OBJECT
  5
32
102
{ACAD_REACTORS
330
2A
102
}
330
2A
100
AcDbProxyObject
 90
      499
 91
      506
 95
       25
 70
     0
 93
      550
310
4150985CDA58D07406404333333333333E3BF0000000000000FB0201C00030C029048070000C3008010100C30040542201C00030C014050640A01C00030C010500B20280D4
1001
ACAD
1000
AcDbSavedByObjectVersion
1070
     0
  0
ACAD_PROXY_OBJECT
  5
36
102
{ACAD_REACTORS
330
2A
102
}
330
2A
100
AcDbProxyObject
 90
      499
 91
      506
 95
       25
 70
     0
 93
      590
310
42109C9A59DA1D195B90C409028333333333333E3BF0000000000000FB0201C00030C02405048070000C3008010100C30040542201C00030C014050640A01C00030C010500B20280A654
1001
ACAD
1000
AcDbSavedByObjectVersion
1070
     0
  0
ACAD_PROXY_OBJECT
  5
3A
102
{ACAD_REACTORS
330
2A
102
}
330
2A
100
AcDbProxyObject
 90
      499
 91
      506
 95
       25
 70
     0
 93
      614
310
42D0DBDB1BDC90DA185B99D95104090240C333333333333E3BF0000000000000FB0202000030C02405048070000C3008010100C30040542202000030C014050640A01C00030C010500B20280D4
1001
ACAD
1000
AcDbSavedByObjectVersion
1070
     0
  0
ACAD_PROXY_OBJECT
  5
34
102
{ACAD_REACTORS
330
2A
102
}
330
2A
100
AcDbProxyObject
 90
      499
 91
      506
 95
       25
 70
     0
 93
      662
310
4290DBDB98D95C1D1D585B10940D028333333333333E3BF0000000000000FB0201C00030C02409028070000C3008010100C300404000000000000444042201C00030C014050640A01C00030C010300B20280D4
1001
ACAD
1000
AcDbSavedByObjectVersion
1070
     0
  0
ACAD_PROXY_OBJECT
  5
35
102
{ACAD_REACTORS
330
2A
102
}
330
2A
100
AcDbProxyObject
 90
      499
 91
      506
 95
       25
 70
     0
 93
      574
310
40D11A5B50B409028333333333333E3BF0000000000000FB0201C00030C02405048070000C3008010100C30040542201C00030C014050640A01C00030C010500B2028099DFFFFFF4
1001
ACAD
1000
AcDbSavedByObjectVersion
1070
     0
  0
ACAD_PROXY_OBJECT
  5
39
102
{ACAD_REACTORS
330
2A
102
}
330
2A
100
AcDbProxyObject
 90
      499
 91
      506
 95
       25
 70
     0
 93
      606
310
42D19858D95C185D1D195C9B90F409028333333333333E3BF0000000000000FB0201C00030C02405048070000C3008010100C30040542201C00030C014050640A01C00030C010500B20280D4
1001
ACAD
1000
AcDbSavedByObjectVersion
1070
     0
  0
ACAD_PROXY_OBJECT
  5
2B
102
{ACAD_REACTORS
330
2A
102
}
330
2A
100
AcDbProxyObject
 90
      499
 91
      506
 95
       25
 70
     0
 93
      550
310
41119B185D240901404333333333333E3BF0000000000000F90201C00030C01029048070000C3008010100C30040542201C00030C014050640A01C00030C010500B20286D4
1001
ACAD
1000
AcDbSavedByObjectVersion
1070
     0
  0
ACAD_PROXY_OBJECT
  5
2C
102
{ACAD_REACTORS
330
2A
102
}
330
2A
100
AcDbProxyObject
 90
      499
 91
      506
 95
       25
 70
     0
 93
      630
310
43519B185D15DA5D1A115919D95CD0140901404333333333333E3BF0000000000000F90201C00030C0102405048070000C3008010100C300405A00404030C014050640A01C00030C010500B20286D4
1001
ACAD
1000
AcDbSavedByObjectVersion
1070
     0
  0
ACAD_PROXY_OBJECT
  5
2D
102
{ACAD_REACTORS
330
2A
102
}
330
2A
100
AcDbProxyObject
 90
      499
 91
      506
 95
       25
 70
     0
 93
      574
310
41D1DBDD5C985D5910240902404333333333333E3BF0000000000000F90201C00030C01029048070000C3008010100C300405A01C00030C014050640A01C00030C010500B20286D4
1001
ACAD
1000
AcDbSavedByObjectVersion
1070
     0
  0
ACAD_PROXY_OBJECT
  5
2E
102
{ACAD_REACTORS
330
2A
102
}
330
2A
100
AcDbProxyObject
 90
      499
 91
      506
 95
       25
 70
     0
 93
      654
310
4411DBDD5C985D5915DA5D1A115919D95CD0340902404333333333333E3BF0000000000000F90201C00030C0102405048070000C3008010100C300405A00404030C014050640A01C00030C010500B20286D4
1001
ACAD
1000
AcDbSavedByObjectVersion
1070
     0
  0
ACAD_PROXY_OBJECT
  5
38
102
{ACAD_REACTORS
330
2A
102
}
330
2A
100
AcDbProxyObject
 90
      499
 91
      506
 95
       25
 70
     0
 93
      606
310
42D31A5B995C185D1D195C9B90E409028333333333333E3BF0000000000000FB0201C00030C02405048070000C3008010100C30041D42201C00030C014050640A01C00030C010500B20E80D4
1001
ACAD
1000
AcDbSavedByObjectVersion
1070
     0
  0
ACAD_PROXY_OBJECT
  5
33
102
{ACAD_REACTORS
330
2A
102
}
330
2A
100
AcDbProxyObject
 90
      499
 91
      506
 95
       25
 70
     0
 93
      582
310
425499585B1A5CDD1A58D08409028333333333333E3BF0000000000000FB0201C00030C024068070000C3008010100C30040542202000030C014050640A01C00030C010500B20286D4
1001
ACAD
1000
AcDbSavedByObjectVersion
1070
     0
  0
ACAD_PROXY_OBJECT
  5
37
102
{ACAD_REACTORS
330
2A
102
}
330
2A
100
AcDbProxyObject
 90
      499
 91
      506
 95
       25
 70
     0
 93
      574
310
41D51A1A58DAD95B90D409028333333333333E3BF0000000000000FB0201C00030C02405048070000C3008010100C30040543201C00030C014050640A01C00030C010500B20280D4
1001
ACAD
1000
AcDbSavedByObjectVersion
1070
     0
  0
DICTIONARYVAR
  5
123
102
{ACAD_REACTORS
330
59
102
}
330
59
100
DictionaryVariables
280
     0
  1
1:1
  0
DICTIONARYVAR
  5
98
102
{ACAD_REACTORS
330
59
102
}
330
59
100
DictionaryVariables
280
     0
  1
STANDARD
  0
DICTIONARYVAR
  5
240
102
{ACAD_REACTORS
330
59
102
}
330
59
100
DictionaryVariables
280
     0
  1
2
  0
DICTIONARYVAR
  5
231
102
{ACAD_REACTORS
330
59
102
}
330
59
100
DictionaryVariables
280
     0
  1
2
  0
DICTIONARYVAR
  5
126
102
{ACAD_REACTORS
330
59
102
}
330
59
100
DictionaryVariables
280
     0
  1
5.000000
  0
ENDSEC
  0
EOF
